Oops, an error
Loading. Please wait.

Rumba En Mi Corazón Tab

65 views 1 this week
no commentswrite comment
1 2 3 4 5
3 more votes to show rating
add to favorites
×
Save as Personal and add changes to this tab that will be seen only by you. Learn more ›
×
You can save this tab as Personal to edit and correct it or add notes. All changes will be seen only by you. Learn more »
save as personal
new!
launch autoscroll
font size
0
reset
how to read this tab
guitar tuner
Autoscroll
slow
fast
+/-
esc
set tempo
stop
Excelente cancion de los hermanos primera... Espero les sirva

Estos son algunos riff q van en medio de la cancion
Riff1:
e-|-------------------------
B-|-11-11p10-11--10-8s6-6s8-
G-|-------------------------
D-|-------------------------
A-|-------------------------
E-|-------------------------

Riff2:
e-|-------------------------
B-|-10-10-8-8h10-8-6h5h6----
G-|-------------------------
D-|-------------------------
A-|-------------------------
E-|-------------------------

Riff3:
e-|---------------------------------------
B-|-8-8-6-6p8--6h5------------------------
G-|---------------7---7-6---6-7-6--6-7-6--
D-|----------------------7-------7------7-
A-|---------------------------------------
E-|---------------------------------------

   Aqui empieza la cancion:
     Dm    A#            Dm         A#
e-|---------------------------------------------------
B-|----------------------------------11-10-10-8-8s6-6
G-|---------------------------------------------------
D-|---------------------------------------------------
A-|-7b8-8-7b8-8--8s10-8-7-8-5-------------------------
E-|---------------------------------------------------

1er verso

        Dm                               Gm
Quiero decir que mi amor por ti nunca ha cesado (Riff1)
          C                     F
Que desde q te fuiste te he llorado (Riff2)
    A#                     Gm
Que trato de enrumbar mis sentimientos (Riff3)
    A
Pero no puedo

    Dm                                     Gm
Entiende no es fàcil olvidar lo que se ha amado
        C                        F
Que es duro comenzar sin ti a mi lado
   A#                        Gm
Perdoname si ves q estoy llorando
       A
Es que aun te amo


CORO

Dm              A#
Ven y dame tu amor que sin ti no hay
 C                Am
Rumba en mi corazon
    A#           Gm
Sin ti yo no dejare que alguien vuelva
     A              Dm
A entrar en mi corazon
             A#              C
Dame una razon de por que mataste
                Am
En mi tanta ilusiòn
       A#         Gm
Esperaré al amanecer a ver si el
   A              Dm
Sol te regresa otra vez

Riff:
     Dm    A#            Dm         A#
e-|-------------------------------------------------------
B-|---------------------------------13-13-11-10h11h10h8---
G-|----------------------------------------------------10-
D-|-------------------------------------------------------
A-|-7b8-8-7b8-8--8s10-8-7-8-5-----------------------------
E-|-------------------------------------------------------

2do verso (mismos acordes)

Y te dire, que mi vida sin ti no tiene sentido
Que el fuego de mi amor aun esta vivo
Es un dolor que llevo aqui conmigo
Ay como te olvido.

Entiende, no es fàcil olvidar
Lo que se ha amado
Que es duro comenzar  sin ti a mi lado
Perdoname si ves que estoy llorando
Es que aun te amo

CORO

 Gm                     Dm
Ay, nada en mi sera igual
         Gm                     Dm
Y es que tu conmigo ya no estaras
                  A
Es mi final, es el final...

Solo:
    Dm                 A#
e-|---------------------------------------
B-|--6-5-6--6-5-6--6-5-6--6-5-6--8-6-5-3--
G-|-7------7------7------7------7---------
D-|---------------------------------------     x2
A-|---------------------------------------
E-|---------------------------------------

   Fm                        C#
e-|---------------------------------------------
B-|---9-8-9---9-8-9---9-8-9---9-8-9---11-9-8-6--
G-|-10------10------10------10------10----------
D-|---------------------------------------------    x2
A-|---------------------------------------------
E-|---------------------------------------------

CORO (Aumenta 1 tono y medio)

Fm              C#
Ven y dame tu amor que sin ti no hay
 D#                Cm
Rumba en mi corazon
    C#           A#m
Sin ti yo no dejare que alguien vuelva
     D#              Fm
A entrar a mi corazon
             C#              D#
Dame una razon de por que mataste
                Cm
En mi tanta ilusiòn
       C#         A#m
Esperaré al amanecer a ver si el
   D#              Fm
Sol te regresa otra vez
Suggest correction
Give kudos to tab author, rate the tab!
1 2 3 4 5
comments
print report bad tab
guest
Wanna post a correction for this tab? Suggest correction