Oops, an error
Loading. Please wait.

El Adiós Tab

509 views 3 this week
no commentswrite comment
1 2 3 4 5
3 more votes to show rating
add to favorites
launch autoscroll
font size
0
reset
how to read this tab
guitar tuner
×
Best way to learn
"El Adiós"
Autoscroll
slow
fast
+/-
esc
set tempo
stop
                            1ª parte
---------------------------------------------------------------
----------0----------------------------------------------------
--2-2-2-1---2-1------------------------------------------------
----------------2---0-0----------------------------------------
------------------------3-2-3-2-0------------------------------
---------------------------------------------------------------
  algo se muere en el ama cuando un amigo se va

                            2ªparte
---------------------------------------------------------------
---------------------------0---------0-------------------------
---------------------2-1-2---2-0-------2-1-2-0-----------------
-------------0-2---2--------------3------------3-2-------------
--0--2-3-2-3---------------------------------------------------
---------------------------------------------------------------
  cuando un amigo se va algo se muere en alma cuando un amigo se va

                (ahora se repite la primera parte)
            (despues la segunda otra vez y la primera)
                 y finalmente el estribillo

                          estribillo
-------------------------------------0-------------------------
----0-1-1-1-0-------0-1-0-1---0--0-1---3-1-0-3-1---------------
--2-----------2-2-2---------2----------------------------------
---------------------------------------------------------------
---------------------------------------------------------------
---------------------------------------------------------------
  no te vayas todavia no te vayas por favor no te vayas todavia


---------------------------------------------------------------
----0-3-1-0---1-0-----0-3-1-0----------------------------------
--2---------2-----1-2---------2--------------------------------
---------------------------------------------------------------
---------------------------------------------------------------
---------------------------------------------------------------
  que hasta la guitarra mia llora cuando dice adios.


AGRADECIMIENTO A:

PEDRO MEMBRIVES
Suggest correction
Give kudos to tab author, rate the tab!
1 2 3 4 5
comments
print report bad tab
guest
You may want to rate the tab now too:
select rating
Wanna post a correction for this tab? Suggest correction