Oops, an error
Loading. Please wait.

Mañanas Tab

23 views 1 this week
no commentswrite comment
1 2 3 4 5
3 more votes to show rating
add to favorites
launch autoscroll
font size
0
reset
how to read this tab
guitar tuner
Autoscroll
slow
fast
+/-
esc
set tempo
stop
Help us to improve Ultimate-Guitar.com Take our survey!
×
Mañanas
¯¯¯¯¯¯¯

Intro I
e|---------------------|
B|---------------------|
G|---------------------|
D|---9-9-9--7--9---7-7-|
A|--7-7-7-----7-7-7--7-|
E|-0-4-5-----0-4-5---5-|

Intro II
1ra. Viola
C#-B-A (x2)

2da. Viola
e|--------------------------------------------------------------------|
B|---------6666666-1010101010-999999-777777---------------------------|
G|-9999999-xxxxxxx-xxxxxxxxxx-xxxxxx-xxxxxx-666-888-999-10- 1313-1414-|
D|-xxxxxxx-4444444-7777777777-666666-444444-xxx-xxx-xxx-xx--xxxx-xxxx-|
A|-7777777----------------------------------444-666-777-999-1111-1212-|
E|--------------------------------------------------------------------|
                  (Fijate los tiempos)
Verso
¯¯¯¯¯
E - B - C# - A
En la oracion que nadie nos leyó
descansa el tiempo sin final en retazos de recuerdos sin color
y aun hoy nadie escribio las voces pasadas
de aquellas mañanas que el sentido nos arrancó

Est.
¯¯¯¯
C# - B - A - E
C# - B - A
C# - B - A - E
C# - B - A

y el sol seco la angustia que grito
la lluvia amarga en la mañana... sin vos
y el mar se ahogo sin ver salir el sol
sin abrazarlo, sin contarle lo que hizo hoy
solo pudo extrañar su calor

Intro II
¯¯¯¯¯¯¯¯

Verso
¯¯¯¯¯
Y acá me ves temiendo ser quien soy
deseando que hayas visto al hombre que no puedo ser sin vos
si mi amor sin condición pensó que alcanzaba
¿por que esa mañana todo lo que era se derrumbo?

Est.
¯¯¯¯

E             B               C#
de las mañanas que soy hijo y vos sos vos
          B            A
te extraño tanto hoy, suelo soñar
                                  E
y recordar al chico que creció y perdió su sol
          B
sos vos, la luz y el calor
  A
que brilla y quema en lo que soy

Est
¯¯¯

2da. viola tira un solito maso menos asi...
e|----------------------------|
B|-12-12---12---12--12-----12-|
G|-9-9--9-9---11--11--11-11---|
D|----------------------------|
A|----------------------------|
E|----------------------------|


SineXcEsos -punkrock
Suggest correction
Give kudos to tab author, rate the tab!
1 2 3 4 5
comments
print report bad tab
guest
You may want to rate the tab now too:
select rating
Wanna post a correction for this tab? Suggest correction