Oops, an error
Loading. Please wait.

Ojos Así Bass

by Shakira
133 views 3 this week
no commentswrite comment
1 2 3 4 5
3 more votes to show rating
add to favorites
launch autoscroll
font size
0
reset
guitar tuner
×
Best way to learn
"Ojos Así"
Autoscroll
slow
fast
+/-
esc
set tempo
stop
La afinacion del Bajo es Medio tono menos (Db Gb B E)
Es un Bajo muy sencillo, solo hay que escuchar la cancion..
Empezamos!!!
  
Q=130
 4/4
  Gtr I
  W          W          W          W
|----------|----------|----------|------|
|----------|----------|----------|------|
|----------|----------|----------|------|
|----------|----------|----------|------|


  W          W          +H.      Q    W
|----------|----------|-------------|------|
|----------|----------|-------------|------|
|----------|----------|-------------|------|
|----------|-0--------|-(0)---------|-0----|


  +H     +Q   +S  S E   W          +H     +Q   +S  S E   W
|---------------------|----------|---------------------|------|
|---------------------|----------|---------------------|------|
|---------------------|----------|---------------------|------|
|-(0)----(0)--(0)-----|-0--------|-(0)----(0)--(0)-----|-0----|


  +H     +Q   +S  S E   E S S E S S E S S S S S S   Q  E S S S S S S S S S S
|---------------------|---------------------------|--------------------------|
|---------------------|---------------------------|--------------------------|
|---------------------|---------------------------|--------------------------|
|-(0)----(0)--(0)-----|-0---0---0-0---0---0---0---|-0--0---0-0---0---0---0---|


  Q  S E S S S S S S S S S   S S E S E S S S S S S S S S
|--------------------------|-----------------------------|
|--------------------------|-----------------------------|
|--------------------------|-----------------------------|
|-0--0---0-0---0---0---0---|-0-----0---0-0---0---0---0---|


  E E S E S S S S S S S S S   E E E S S S S S S S S S S
|---------------------------|----------------------------|
|---------------------------|----------------------------|
|---------------------------|----------------------------|
|-0---0---0-0---0---0---0---|-0---0---0-0---0---0---0----|


  E E S E S S S S S S S S S   E E E S S S S S S S S S S
|---------------------------|----------------------------|
|---------------------------|----------------------------|
|---------------------------|----------------------------|
|-0---0---0-0---0---0---0---|-0---0---0-0---0---0---0----|


  E E E S S S S S S S S S S   Q  E S S S S S S S S S S
|---------------------------|---------------------------|
|---------------------------|---------------------------|
|---------------------------|---------------------------|
|-1---1---1-1---1---1---1---|-1--1---1-1---1---1---1----|


  E E S E S S S S S S S S S   E E E S S S S S S S S S S
|---------------------------|----------------------------|
|---------------------------|----------------------------|
|---------------------------|----------------------------|
|-0---0---0-0---0---0---0---|-0---0---0-0---0---0---0----|


  E E E S S S S S S S S S S   E E E S S S S S S S S S S
|---------------------------|----------------------------|
|---------------------------|----------------------------|
|---------------------------|----------------------------|
|-1---1---1-1---1---1---1---|-1---1---1-1---1---1---1----|


  E E S E S S S S S S S S S
|---------------------------|
|---------------------------|
|---------------------------|
|-0---0---0-0---0---0---0---|


  S S E E E E S S E S S   E E E S S S S S S S S S S
|-----------------------|---------------------------|
|-----------------------|---------------------------|
|-7-------7---7-----5---|---------------------------|
|-----------------------|-0---0---0-0---0---0---0---|


  E E E S S S S S S S S S S   E E S E S S S S S S S S S
|---------------------------|----------------------------|
|---------------------------|----------------------------|
|---------------------------|----------------------------|
|-0---0---0-0---0---0---0---|-0---0---0-0---0---0---0----|


  E E E S S S S S S S S S S   E E E S S S S S S S S S S
|---------------------------|----------------------------|
|---------------------------|----------------------------|
|---------------------------|----------------------------|
|-0---0---0-0---0---0---0---|-0---0---0-0---0---0---0----|


  E E E S S S S S S S S S S   E S S S S S S E S S S S S S
|---------------------------|-----------------------------|
|---------------------------|-----------------------------|
|---------------------------|-----------------------------|
|-1---1---1-1---1---1---1---|-3---3-3---3---1---1-1---1---|


  E E E S S S S S S S S S S   E E E S S S S S S S S S S
|---------------------------|----------------------------|
|---------------------------|----------------------------|
|---------------------------|----------------------------|
|-0---0---0-0---0---0---0---|-0---0---0-0---0---0---0----|


  E E E S S S S S S S S S S   E E E S S S S S S S S S S
|---------------------------|----------------------------|
|---------------------------|----------------------------|
|---------------------------|----------------------------|
|-0---0---0-0---0---0---0---|-0---0---0-0---0---0---0----|


  E E E S S S S S S S S S S   E E E S S S S S S S S S S
|---------------------------|----------------------------|
|---------------------------|----------------------------|
|---------------------------|----------------------------|
|-0---0---0-0---0---0---0---|-0---0---0-0---0---0---0----|


  E E S E S S S S S S S S S   E S S S S S S E S S S S S S
|---------------------------|-----------------------------|
|---------------------------|-----------------------------|
|---------------------------|-----------------------------|
|-1---1---1-1---1---1---1---|-3---3-3---3---1---1-1---1---|


  E E E S S S S S S S S E   Q  E S S S S S S Q    Q  E S S S S S S S S S S
|-------------------------|---------------------|---------------------------|
|-------------------------|---------------------|---------------------------|
|-------------------------|---------------------|---------------------------|
|-0---0---0-0---0---0---0-|-0--0---0-0---0---0--|-0--0---0-0---0---0---0----|


  Q  E S S S S S S S S S S   Q  S E S S S E +E  E   E S S E S S E S S S S S S
|--------------------------|----------------------|----------------------------|
|--------------------------|----------------------|----------------------------|
|--------------------------|----------------------|----------------------------|
|-0--0---0-0---0---0---0---|-0--0---0-0---0-(0)---|-0---0---0-0---0---0---0----|


  Q  E S S S S S S S S S S   Q  S E S S S S S S S S S
|--------------------------|---------------------------|
|--------------------------|---------------------------|
|--------------------------|---------------------------|
|-0--0---0-0---0---0---0---|-0--0---0-0---0---0---0----|


  S S E S E S S S S S S S S S   E E S E S S S S S S S S S
|-----------------------------|---------------------------|
|-----------------------------|---------------------------|
|-----------------------------|---------------------------|
|-0-----0---0-0---0---0---0---|-0---0---0-0---0---0---0---|


  E E E S S S S S S S S S S   E E S E S S S S S S S S S
|---------------------------|----------------------------|
|---------------------------|----------------------------|
|---------------------------|----------------------------|
|-0---0---0-0---0---0---0---|-0---0---0-0---0---0---0----|


  E E E S S S S S S S S S S   E E E S S S S S S S S S S
|---------------------------|----------------------------|
|---------------------------|----------------------------|
|---------------------------|----------------------------|
|-0---0---0-0---0---0---0---|-1---1---1-1---1---1---1----|


  Q  E S S S S S S S S S S   E E S E S S S S S S S S S
|--------------------------|----------------------------|
|--------------------------|----------------------------|
|--------------------------|----------------------------|
|-1--1---1-1---1---1---1---|-0---0---0-0---0---0---0----|


  E E E S S S S S S S S S S   E E E S S S S S S S S S S
|---------------------------|----------------------------|
|---------------------------|----------------------------|
|---------------------------|----------------------------|
|-0---0---0-0---0---0---0---|-1---1---1-1---1---1---1----|


  E E E S S S S S S S S S S
|---------------------------|
|---------------------------|
|---------------------------|
|-1---1---1-1---1---1---1---|


  E E S E S S S S S S S S S   S S E E E E S S E S S
|---------------------------|-----------------------|
|---------------------------|-----------------------|
|---------------------------|-7-------7---7-----5---|
|-0---0---0-0---0---0---0---|-----------------------|


  E E E S S S S S S S S S S   E E E S S S S S S S S S S
|---------------------------|----------------------------|
|---------------------------|----------------------------|
|---------------------------|----------------------------|
|-0---0---0-0---0---0---0---|-0---0---0-0---0---0---0----|


  E E S E S S S S S S S S S   E E E S S S S S S S S S S
|---------------------------|----------------------------|
|---------------------------|----------------------------|
|---------------------------|----------------------------|
|-0---0---0-0---0---0---0---|-0---0---0-0---0---0---0----|


  E E E S S S S S S S S S S   E E E S S S S S S S S S S
|---------------------------|----------------------------|
|---------------------------|----------------------------|
|---------------------------|----------------------------|
|-0---0---0-0---0---0---0---|-1---1---1-1---1---1---1----|


  E S S S S S S E S S S S S S   E E E S S S S S S S S S S
|-----------------------------|---------------------------|
|-----------------------------|---------------------------|
|-----------------------------|---------------------------|
|-3---3-3---3---1---1-1---1---|-0---0---0-0---0---0---0---|


  E E E S S S S S S S S S S   E E E S S S S S S S S S S
|---------------------------|----------------------------|
|---------------------------|----------------------------|
|---------------------------|----------------------------|
|-0---0---0-0---0---0---0---|-0---0---0-0---0---0---0----|


  E E E S S S S S S S S S S   E E E S S S S S S S S S S
|---------------------------|----------------------------|
|---------------------------|----------------------------|
|---------------------------|----------------------------|
|-0---0---0-0---0---0---0---|-0---0---0-0---0---0---0----|


  E E E S S S S S S S S S S   E E S E S S S S S S S S S
|---------------------------|----------------------------|
|---------------------------|----------------------------|
|---------------------------|----------------------------|
|-0---0---0-0---0---0---0---|-1---1---1-1---1---1---1----|


  E S S S S S S E S S S S S S   E E E S S S S S S S S E
|-----------------------------|--------------------------|
|-----------------------------|--------------------------|
|-----------------------------|--------------------------|
|-3---3-3---3---1---1-1---1---|-0---0---0-0---0---0---0--|


  S S S S S S S S S S S S S S S S   S S S S S S S S S S S S S S S S
|---------------------------------|---------------------------------|
|---------------------------------|---------------------------------|
|---------------------------------|---------------------------------|
|-0---0-0-0---0-0-0---0-0-0-0-0-0-|-0---0-0-0---0-0-0---0-0-0-0-0-0-|


  S S S S S S S S S S S S S S S S   S S S S S S S S S S S S S S S S
|---------------------------------|---------------------------------|
|---------------------------------|---------------------------------|
|---------------------------------|---------------------------------|
|-0---0-0-0---0-0-0---0-0-0-0-0-0-|-0---0-0-0---0-0-0---0-0-0-0---0-|


  S S S S S S S S S S S S S S S S   S S S S S S S S S S S S S S S S
|---------------------------------|---------------------------------|
|---------------------------------|---------------------------------|
|---------------------------------|---------------------------------|
|-0---0-0-0---0-0-0---0-0-0-0-0-0-|-0---0-0-0---0-0-0---0-0-0-0-0-0-|


  S S S S S S S S S S S S S S S S   S S S S S S S S S S S S S S S S
|---------------------------------|---------------------------------|
|---------------------------------|---------------------------------|
|---------------------------------|---------------------------------|
|-0---0-0-0---0-0-0---0-0-0-0-0-0-|-0---0-0-0---0-0-0---0---0---0---|


  S S S S S S S S S S S S S S S S   S S S S S S S S S S S S S S S S
|---------------------------------|---------------------------------|
|---------------------------------|---------------------------------|
|-0---0-0-0---0-0-0---0-0-0-0-0-0-|-2---2-2-2---2-2-2---2-2-2-2-2---|
|---------------------------------|---------------------------------|


  S S S S S S S S S S S S S S S S   S S S S S S S S S S S S S S S S
|---------------------------------|---------------------------------|
|---------------------------------|---------------------------------|
|-3---3-3-3---3-3-3---3-3-3-3-3-3-|-2---2-2-2---2-2-2---2---2-2-2-2-|
|---------------------------------|---------------------------------|


  S S S S S S S S S S S S S S S S   S S S S S S S S S S S S S S S S
|---------------------------------|---------------------------------|
|---------------------------------|---------------------------------|
|-0---0-0-0---0-0-0---0-0-0---0-0-|---------------------------------|
|---------------------------------|-3---3-3-3---3-3-3---3-3-3-3-3-3-|


  S S S S S S S S S S S S S S S S   S S S S S S S S S S S S S S S S
|---------------------------------|---------------------------------|
|---------------------------------|---------------------------------|
|---------------------------------|---------------------------------|
|-2---2-2-2---2-2-2---2-2-2-2-2-2-|-1---1-1-1---1-1-1---1-1-1-1-1---|


  S S S S E S S S S E S S E   E E Q  H      E E Q  H      E E Q  H
|---------------------------|-------------|-------------|-------------|
|---------------------------|-------------|-------------|-------------|
|---------------------------|-------------|-------------|-------------|
|-0---0-----0---2-----0-----|-0-----------|-0-----------|-0-----------|


  E E Q  H      E E Q  H      E E Q  H      E E Q  E E Q
|-------------|-------------|-------------|---------------|
|-------------|-------------|-------------|---------------|
|-------------|-------------|-------------|---------------|
|-0-----------|-0-----------|-1-----------|-3------1------|


  E E Q  S S S S S S S S   E S S S S S S S S S S S S S S
|------------------------|-------------------------------|
|------------------------|-------------------------------|
|------------------------|-------------------------------|
|-0------0---0---0---0---|-0---0-0---0---0---0---0---0---|


  E S S S S S S S S S S S S E   S E S S S S S S S S S S S S S
|-----------------------------|-------------------------------|
|-----------------------------|-------------------------------|
|-----------------------------|-------------------------------|
|-0---0-0---0---0---0---0-----|-0---0-0---0---0---0---0---0---|


  E S S S S S S E S S S S S S   E S S E S S E S S S S S S
|-----------------------------|---------------------------|
|-----------------------------|---------------------------|
|-----------------------------|---------------------------|
|-0---0-0---0---0-0---0---0---|-0---0-0-0---0-0---0---0---|


  S E S E S S S S S S S S S S   S S E E S S E E Q
|-----------------------------|--------------------|
|-----------------------------|--------------------|
|-----------------------------|--------------------|
|-1---1-1-1---1---1---1---1---|-3-------3---1------|


  E S S s S S S S S S S s S E
|-----------------------------*|
|-----------------------------*|
|-----------------------------*|
|-0---0-0---0---0---0---0-----*|

FIN!!!
- BUENO AQUI ABAJO ESTA EL SIGNIFICADO DE LAS LETRAS Y LOS SIGNOS...
- ESPERO QUE LES HAYA AGRADADO Y SOBRETODO QUE LE HAYAN ENTENDIDO...
- POR SI ALGUNA RAZON NO LE ENTIENDEN PUES HECHENME UN MAIL A: sNaKePiTs@
- SI QUIEREN ALGUNA PETICION PUES TAMBIEN HECHENME UN MAIL...
- ESTA CANCION Y OTRAS LAS TENGO EN ARCHIVOS POWERTAB, POR SI ALGUIEN LA QUIERE...
  PUES HECHENME UN MAIL PIDIENDOLAS...
- LOS VERE EN LA PROXIMA CANCION!!!...


NOTA!!!: PUEDEN UTILIZAR ESTA TAB PARA PUBLICARLA DONDE USTEDES
QUIERAN, PERO POR FAVOR LES RUEGO QUE ME DEN LOS CREDITOS COMO
TRANSCRIPTOR DE LA MISMA...GRACIAS!!!

NESTOR SADAO ARECHIGA CERVANTES (sNaKePiTs@


LEYENDA DE LAS NOTAS:

W = (REDONDA)     NOTA COMPLETA
H = (BLANCA)      MEDIA NOTA
Q = (NEGRA)       CUARTO DE NOTA
E = (CORCHEA)     OCTAVO DE NOTA
S = (SEMICORCHEA) DIECISEISAVA DE NOTA
T = (FUSA)        TREINTAIDOSAVA DE NOTA
X = (SEMIFUSA)    SESENTAICUATROAVA DE NOTA

a  =  ACCIACCATURA
+  =  LIGADURA
.  =  AUMENTA LA DURACION DE LA NOTA
.. =  AUMENTA LA DOBLE DE LA DURACION DE LA NOTA


LEYENDA DEL 'PENTAGRAMA'
 |  - COMPAS
||  - DOBLE COMPAS
||o - ES DONDE VA A COMENZAR CUANDO ALGO SE VA A REPETIR
o|| - ES DONDE VA A TERMINAR CUANDO ALGO SE VA A REPETIR
*|  - FIN DE LA CANCION
 :  - COMPAS LIBRE
 $  - SEGNO (AL VER ESTE SIGNO, TENEMOS QUE RETROCEDER HASTA VER EL SIGNO ANTERIOR $...)
 &  - CODA (SIGNIFICA QUE DEBES PASAR LA SIGUIENTE SIGNO &)
Suggest correction
Give kudos to tab author, rate the tab!
1 2 3 4 5
comments
print report bad tab
guest
You may want to rate the tab now too:
select rating
Wanna post a correction for this tab? Suggest correction