Oops, an error
Loading. Please wait.

Ojos Así Tab

version 2
version 2

Whole song

Interactive

by Shakira
145 views 1 this week
no commentswrite comment
1 2 3 4 5
3 more votes to show rating
add to favorites
launch autoscroll
font size
0
reset
how to read this tab
guitar tuner
Autoscroll
slow
fast
+/-
esc
set tempo
stop
hola amigos aqui esta la tablatura de 
ojos asi, un poco mas sencilla pero con mucha mas 
precision, si desean el punteo perfecto les recomiendo 
la tablatura de nestor sadao es mas completa
pero complicada

aqui esta la primera guitarra electrica
(antes esta el gong, el acordeon y el oud)


e|------------------------------|------------------------------|
B|------------------------------|------------------------------|
G|------------------------------|------------------------------|
D|--------3-4-3--6--6-3-4-3-----|--------3-4-3--6-6-3-4-4-3----|
A|--2--4---------------------4--|--2--4---------------------4--|
E|------------------------------|------------------------------|

e|------------------------------|-------------------|
B|------------------------------|-------------------|
G|------------------------------|-------------------|
D|--------3-4-3--6--6-3-4-3-----|--------3-4-3------|
A|--2--4---------------------4--|--2--4---------4---|
E|------------------------------|-------------------|

Aqui estan unos riff donde se pueden repetir toda la cancion 
o para remplazar el oud el acordeon y el violin
bueno si lo desean

e|---------------------------------------------------------|
B|--2-2--0-------------------2-2--0------------------------|
G|----------2-1--2-2-1--1-2----------2-1--2-2--1/2--1-2-1--|
D|---------------------------------------------------------|
A|---------------------------------------------------------|
E|---------------------------------------------------------|

este es el mas importante, el del oud se repite todo el tiempo
son las notas que hace la voz de shakira

e|------0-----------0-------------------0------|
B|--2/3---3-2---2/3---3-2---0-0-0---2/3---3-2--|
G|---------------------------------------------|
D|---------------------------------------------|
A|---------------------------------------------|
E|---------------------------------------------|

ahora si los acordes
EL RASGUEO EN LAS NOTAS QUE TERMINAN EN
C#:  UNO
D:   UNO
C#:  DOS


C#        D               B 
Ayer conocí un cielo sin sol
                 C# D C#
y un hombre sin suelo
C#               D
un santo en prisión
           B              C# D C#
y una canción triste sin dueño


C#/D   C#/D   C# C#/D
Ya he, Ya he, ya la he
      B   C#      D  C#
y conocí tus ojos negros
C#/D   C#/D   C# C#/D
Ya he, Ya he, ya la he
         B
y ahora sí que no
  C#         D   C#
puedo vivir sin ellos yo

CORO
C#           D        C#    D                      
Le pido al cielo sólo un deseo 
B           B            C#  
que en tus ojos yo pueda vivir
C#           D  C#         D
he recorrido ya el mundo entero
B           B            C#  
y una cosa te vengo a decir
E                 
viaje de Bahren hasta Beirut
C#                             D
fuí desde el norte hasta polo sur
D               C#
y no encontré ojos así
B          D C#     B C#
como los que tienes tú


C#     D     C#    D 
rabboussamai fikarrajaii
B           C#  D/C#
fi ainaiha aralhayati
C#     D     C#    D
ati ilaika min haza lkaaouni
B           C#  D/C#
arjouka labbi labbi nidai
E                 
viaje de Bahren hasta Beirut
C#                             D
fuí desde el norte hasta polo sur
D               C#
y no encontré ojos así
B          D C#     B C#
como los que tienes tú

C#, D, B, C#, D, C#, B/C#


C#        D          B 
Ayer vi pasar una mujer
                 C# D C#
debajo de su camello
C#         D
un río de sal un barco
  B                  C# D C# B/C#
abandonado en el desierto


 C#/D   C#/D   C# C#/D
Ya he, Ya he, ya la he
      B    C#      D  C#
y vi pasar tus ojos negros
C#/D   C#/D   C# C#/D
Ya he, Ya he, ya la he
         B
y ahora sí que no
  C#         D   C#
puedo vivir sin ellos yo


CORO

VIOLIN
D|---7-4/6-7-6/9--7-4/6-7-6--4/6/7--|

FRASE ARABEY CORO DOS VECES

SI TENGO ALGUN ERROR AVICENME
Suggest correction
Give kudos to tab author, rate the tab!
1 2 3 4 5
comments
print report bad tab
guest
Wanna post a correction for this tab? Suggest correction