Oops, an error
Loading. Please wait.

Ojos Así Tab

version 3
version 3

Whole song

116 views 1 this week
no commentswrite comment
1 2 3 4 5
3 more votes to show rating
add to favorites
launch autoscroll
font size
0
reset
how to read this tab
guitar tuner
×
Best way to learn
"Ojos Así"
Autoscroll
slow
fast
+/-
esc
set tempo
stop
Standard Tuning EADGBe

Ok i learned this off the Latin Grammy Video to match this up with the laundry service
version called eyes like yours you have to skip the first line and start with the second
line it matches with unplugged though.


Start with this chord play it several times then that riff comes in you play it 4 times
e---------------------------------------------------------------------------------------------
B---------------------------------------------------------------------------------------------
G---7--7--7-----------------------------------------------------------------------------------
D---7--7--7---------11-11-9-7-6-7-7-6-7-9-----------------------------------------------------
A---5--5--5-----------------------------------------------------------------------------------
E---------------------------------------------------------------------------------------------


Then this is played
e------------------------------------------------------------------------------------------------
B------------------------------------------------------------------------------------------------
G------------------------------------------------------------------------------------------------
D------------------------------------------------------------------------------------------------
A---------7--9--7--11--9--7--9--7-----------------------7--9--7--11--9--7--9--7------------------
E--7---9---------------------------9------------7---9----------------------------9--9------------


e------------------------------------------------------------------------------------------------
B------------------------------------------------------------------------------------------------
G------------------------------------------------------------------------------------------------
D------------------------------------------------------------------------------------------------
A---------7--9--7--11--9--7--9--7-----------------------7--9--7----------------------------------
E--7---9---------------------------9-----------7---9-------------9-------------------------------


YOu play this twice
e------------------------------------------------------------------------------------------------
B------------------------------------------------------------------------------------------------
G------------------------------------------------------------------------------------------------
D------------------------------------------------------------------------------------------------
A----9---11----9---11-----9----11----9---11--------7---11---7--11---7---11---7--11---------------
E------------------------------------------------------------------------------------------------


then the back up singers start sayin somthin like ya hey ya hey ya ya hey or somthin like that
and u follow them with this chord i like to play it like this but u can just hit the chord if ud
like.
e------------------------------------------------------------------------------------------------
B------------------------------------------------------------------------------------------------
G---7------7-------7---7-------------------------------------------------------------------------
D---7------7-------7---7-------------------------------------------------------------------------
A-5-5----5-5--5-5--5-5-5-------------------------------------------------------------------------
E------------------------------------------------------------------------------------------------

this is what i play during the chorus
e------------------------------------------------------------------------------------------------
B------------------------------------------------------------------------------------------------
G------------------------------------------------------------------------------------------------
D------------------------------------------------------------------------------------------------
A---------7--9--7--11--9--7--9--7-----------------------7--9--7--11--9--7--9--7------------------
E--7---9---------------------------9------------7---9----------------------------9--9------------

When the violin is playing i just folow it as best as i can with the guitar its not hard just listen


12/29/01

peace
Suggest correction
Give kudos to tab author, rate the tab!
1 2 3 4 5
comments
print report bad tab
guest
You may want to rate the tab now too:
select rating
Wanna post a correction for this tab? Suggest correction