Oops, an error
Loading. Please wait.

Pies Descalzos, Sueños Blancos Tab

by Shakira
208 views 3 this week
no commentswrite comment
1 2 3 4 5
3 more votes to show rating
add to favorites
launch autoscroll
font size
0
reset
how to read this tab
guitar tuner
×
Best way to learn
"Pies Descalzos, Sueños Blancos"
Autoscroll
slow
fast
+/-
esc
set tempo
stop
then the chorus are the chords and the lead part underneath
e|------------------------------------------------------------------------------------------------------|
B|------------------------------------------------------------------------------------------------------|
G|-9-9-9-9-9------------------------------------------9-------------------------------------------------|
D|-9-9-9-9-9--9-9-9-9-9--7-7-7-7-7--9-9-9-9-9-----7---9--9-9-9-9-9-9-9-9--------------------------------|
A|-7-7-7-7-7--9-9-9-9-9--7-7-7-7-7--9-9-9-9-9-x2--7---7--9-9-9-9-9-9-9-9--------------------------------|
E|------------7-7-7-7-7--5-5-5-5-5--7-7-7-7-7-----5------7-7-7-7-7-7-7-7--------------------------------|

E|------------------------------------------------------------------------------------------------------|
B|------------------------------------------------------------------------------------------------------|
G|--8h9-9-9-9-9-9-9--8h9-9-9-9-9-9-9--8h9-9-9-9-9-9-9--8h9-9-9--8h9--11--x2-----------------------------|
D|------------------------------------------------------------------------------------------------------|
A|------------------------------------------------------------------------------------------------------|
E|------------------------------------------------------------------------------------------------------|

back to the verse
e|------------------------------------------------------------------------------------------------------|
B|------------------------------------------------------------------------------------------------------|
G|--9-9-9-9-9------------------------------------------9-9-9-9-9----------------9-----------------------|
D|--9-9-9-9-9---9-9-9-9-9---7-7-7-7-7---9-9-9-9-9------9-9-9-9-9--9-9-9-9-9--7--9--9--------------------|
A|--7-7-7-7-7---9-9-9-9-9---7-7-7-7-7---9-9-9-9-9-x3---7-7-7-7-7--9-9-9-9-9--7--7--9--------------------|
E|--------------7-7-7-7-7---5-5-5-5-5---7-7-7-7-7-----------------7-7-7-7-7--5-----7--------------------|
then the chorus again with a little change
e|------------------------------------------------------------------------------------------------------|
B|------------------------------------------------------------------------------------------------------|
G|-9-9-9-9-9---------------------------------------9-9-9-9-9-9-9-9--------------------------------------|
D|-9-9-9-9-9--9-9-9-9-9--7-7-7-7-7--9-9-9-9-9------9-9-9-9-9-9-9-9-9-9-9-9-9-9-9-9----------------------|
A|-7-7-7-7-7--9-9-9-9-9--7-7-7-7-7--9-9-9-9-9-x4---7-7-7-7-7-7-7-7-9-9-9-9-9-9-9-9-x2-------------------|
E|------------7-7-7-7-7--5-5-5-5-5--7-7-7-7-7----------------------7-7-7-7-7-7-7-7----------------------|

E|------------------------------------------------------------------------------------------------------|
B|------------------------------------------------------------------------------------------------------|
G|--8h9-9-9-9-9-9-9--8h9-9-9-9-9-9-9--8h9-9-9-9-9-9-9--8h9-9-9--8h9--11--x4-----------------------------|
D|------------------------------------------------------------------------------------------------------|
A|------------------------------------------------------------------------------------------------------|
E|------------------------------------------------------------------------------------------------------|

then after that chorus there is another one again and that is it for the song.
E|------------------------------------------------------------------------------------------------------|
B|------------------------------------------------------------------------------------------------------|
G|-9-9-9-9-9-------------------------------------------9------------------------------------------------|
D|-9-9-9-9-9--9-9-9-9-9--7-7-7-7-7--9-9-9-9-9------7---9---9-9-9-9-9-9-9-9---7--9---2-------------------|
A|-7-7-7-7-7--9-9-9-9-9--7-7-7-7-7--9-9-9-9-9-x4---7---7---9-9-9-9-9-9-9-9---7--9---2-------------------|
E|------------7-7-7-7-7--5-5-5-5-5--7-7-7-7-7------5-------7-7-7-7-7-7-7-7---5--7---0-------------------|

E|------------------------------------------------------------------------------------------------------|
B|------------------------------------------------------------------------------------------------------|
G|--8h9-9-9-9-9-9-9--8h9-9-9-9-9-9-9--8h9-9-9-9-9-9-9--8h9-9-9--8h9--11--x4-----------------------------|
D|------------------------------------------------------------------------------------------------------|
A|------------------------------------------------------------------------------------------------------|
E|------------------------------------------------------------------------------------------------------|


This is the end of the song but i like to play this or somethin like this starting at the second chorus
(1:52) it is just improvision i will put this down but it is never the same thing i change it every time
i play it.
E|-----------15---17---15--12--10------------------------------------------------------17--15------------|
B|--15--17--------------------------12--10--15--12--10------------------------------17-------------------|
G|------------------------------------------------------12---9---12/14-12--14/16-------------------------|
D|-------------------------------------------------------------------------------------------------------|
A|-------------------------------------------------------------------------------------------------------|
E|-------------------------------------------------------------------------------------------------------|
Just continue to play these notes in different order and it fits the song good i can't put down an exact
solo cause there isn't one but i like playin around with it just do it how u want.
Suggest correction
Give kudos to tab author, rate the tab!
1 2 3 4 5
comments
print report bad tab
guest
You may want to rate the tab now too:
select rating
Wanna post a correction for this tab? Suggest correction