Oops, an error
Loading. Please wait.

Pies Descalzos, Sueños Blancos Bass Tab

148 views 1 this week
no commentswrite comment
1 2 3 4 5
3 more votes to show rating
add to favorites
launch autoscroll
font size
0
reset
guitar tuner
×
Best way to learn
"Pies Descalzos, Sueños Blancos"
Autoscroll
slow
fast
+/-
esc
set tempo
stop
esta cancion me encanta
y como lo baila en el video es chido
escuchen bien y veran bueno oiran que
no toca constantemente
solo al ritmo
bueno empieza en
blancos fuiste
E|---|---|---|---|---|
A|---|---|---|---|-0-|
D|-2-|-4-|---|---|---|
G|---|---|-2-|-4-|---|

se entra en el riff de guitarra
pero despues de la bateria
E|-0(32)--|
A|--------|
D|--------|
G|--------|

Tu mordiste la manzana_y
E|------|-----|-----|-----|-----|-----|-----|------|
A|------|-----|-4-4-|-4-4-|-0-0-|-----|-2-2-|-2-2--|x2
D|--2-2-|-1-1-|-----|-----|-----|-2-2-|-----|------|
G|------|-----|-----|-----|-----|-----|-----|------|

y ahora estas aqui
E|---------|-0-0-0-0--|
A|--4-4--4-|----------|x2
D|------2--|----------|
G|---------|----------|

cuando no te
E|---------|-0-0-0-0-|----|---|---|----------|
A|--4-4--4-|---------|--0-|---|-2-|-2222222--|
D|------2--|---------|----|-2-|---|----------|
G|---------|---------|----|---|---|----------|

(Coro)Perteneciste
E|--0-000-|-02-2-2-|-2------|----------|
A|--------|--------|--0-0-0-|-02-2-2-2-|x2
D|--------|--------|--------|----------|
G|--------|--------|--------|----------|

E|----|---|---|----------|
A|--0-|---|-2-|-2222222--|
D|----|-2-|---|----------|
G|----|---|---|----------|

Construiste
E|------|-----|-----|-----|-----|-----|-----|------|
A|------|-----|-4-4-|-4-4-|-0-0-|-----|-2-2-|-2-2--|x2
D|--2-2-|-1-1-|-----|-----|-----|-2-2-|-----|------|
G|------|-----|-----|-----|-----|-----|-----|------|

y ahora estas aqui
E|---------|-0-0-0-0--|
A|--4-4--4-|----------|x2
D|------2--|----------|
G|---------|----------|

cuando no te
E|---------|-0-0-0-0-|----|---|---|----------|
A|--4-4--4-|---------|--0-|---|-2-|-2222222--|
D|------2--|---------|----|-2-|---|----------|
G|---------|---------|----|---|---|----------|

(Coro)Perteneciste
E|--0-000-|-02-2-2-|-2------|----------|
A|--------|--------|--0-0-0-|-02-2-2-2-|x4
D|--------|--------|--------|----------|
G|--------|--------|--------|----------|

saludar al vecino
E|--------------55-|-0-000-00-00-55--|
A|--5-555-55-55----|-----------------|
D|-----------------|-----------------|
G|-----------------|-----------------|

y contestar
E|--------------5-|-------------------|
A|--5-555-55-55---|-22-2-2-2-2-2-2-2--|
D|----------------|---2-2-2-2-4-4-4---|
G|----------------|-------------------|

Cumplir con las tareas
E|--0-000-|-02-2-2-|-2------|----------|
A|--------|--------|--0-0-0-|-02-2-2-2-|x4
D|--------|--------|--------|----------|
G|--------|--------|--------|----------|

y bailar bien
E|----|---|---|
A|--0-|---|-2-|
D|----|-2-|---|
G|----|---|---|

y bailar bien
E|----|---|-0-|
A|--0-|-2-|---|
D|----|---|---|
G|----|---|---|

el ultimo tambien puede ser ase
E|----|---|---|
A|--0-|-2-|---|
D|----|---|-2-|
G|----|---|---|

atte miauricio gatolar
Suggest correction
Give kudos to tab author, rate the tab!
1 2 3 4 5
comments
print report bad tab
guest
You may want to rate the tab now too:
select rating
Wanna post a correction for this tab? Suggest correction