Oops, an error
Loading. Please wait.

Increíble Es Tu Amor Chords

75 views 1 this week
no commentswrite comment
1 2 3 4 5
2 more votes to show rating
add to favorites
launch autoscroll
font size
0
reset
transpose
0
reset
simplify chords
display chords
guitar tuner
×
Best way to learn
"Increíble Es Tu Amor"
Autoscroll
slow
fast
+/-
esc
set tempo
stop
Twitter: blackbird0809

Hace un par de noches llegaba a casa como a las 2 de la mañana,
puse desde mi celular una radio por internet, y la escuché.
Tomé mi guitarra y aquí la transcribo.
Un agradecimiento y alabanza hechos canción. ¡El señor les bendiga!


Dudas, peticiones, correcciones, etc.


B/D#
EADGBe
-698--


C#m-A-E-B

C#m                 A            E           B
   El sonido de tu voz en el viento, en la lluvia
C#m                                  A
   Puedo escuchar en las olas de el mar,
                   E               B              C#m  A  E  B
En el ruido de el bosque me doy cuenta que eres real.
        A                 B
Cada amanecer es una oportunidad


      E                     C#m
De contemplar tu gloria, de disfrutar tu gracia,
        B                    A   Fig. A
De brindarte lo que tengo y soy
    E                 C#m
De irme de rodillas y derramar perfume
         B                       A
Y a tus pies brindarte mi adoración.
                 C#m
Increíble es tu amor.


Me sorprendes más y más con las bendiciones
Y los detalles que siempre me das.
Cómo podría pagar si no tiene precio,
Tu amor es incalculable.
Cada amanecer es una oportunidad.


[Puente]
                  E
?increíble es tu amor.
   B/D#
Viviré para ti
       C#m                     B
Por el resto de mis días será tuya mi vida.

[Solo]
    A            E       B
e||---------7~---4--------------------|
B||-------5--------5-----7~~~p5\4\2~~-|
G||----/6------------4/6--------------|
D||-----------------------------------|
A||-----------------------------------|
E||-----------------------------------|

 A       E        B                     A
|-----7~---4----------------------------------||
|---5--------5-----7~~---7~--7~---------12~~~-||
|/6----------4/6----6---6------6/(11)----||
|---------------------------------------------||
|---------------------------------------------||
|---------------------------------------------||

                         B
Hoy puedo tener otra oportunidad...


   Fig. A
e||--------------------------|
B||--------------------------|
G||--9-9-9-11-14-13-11-9~~~~-|
D||--x-x-x-x--x--x--x--x-----|
A||--7-7-7-9--12-11-9--7~~~~-|
E||--------------------------|


(No entiendo por qué el tab del solo me aparece mal en la vista previa,
en la tercera cuerda, y también la posición de los acordes.
Espero y sea solo el preview.  Lo modificaré en la siguiente
transcripción si el problema sigue  ¡Bendiciones!)
Suggest correction
Give kudos to tab author, rate the tab!
1 2 3 4 5
comments
print report bad tab
guest
You may want to rate the tab now too:
select rating
Wanna post a correction for this tab? Suggest correction