Oops, an error
Loading. Please wait.

La Niña De Mis Sueños Tab

56 views 1 this week
no commentswrite comment
1 2 3 4 5
3 more votes to show rating
add to favorites
launch autoscroll
font size
0
reset
how to read this tab
guitar tuner
×
Best way to learn
"La Niña De Mis Sueños"
Autoscroll
slow
fast
+/-
esc
set tempo
stop
INTRO: (A)

   A
|--7----7----7----7----7----7----7----7---|
|----5----5----5----5----5----5----5----5-|
|-----------------------------------------|
|-----------------------------------------|
|-----------------------------------------|
|-----------------------------------------|

   E
|--4----4----4----4----4----4----4----4---|
|----5----5----5----5----5----5----5----5-|
|-----------------------------------------|
|-----------------------------------------|
|-----------------------------------------|
|-----------------------------------------|

   Bm
|--5----5----5----5----5----5----5----5---|
|----5----5----5----5----5----5----5----5-|
|-----------------------------------------|
|-----------------------------------------|
|-----------------------------------------|
|-----------------------------------------|

  E
|-4----4----4----4----4----4----4----4----|
|---5----5----5----5----5----5----5-------|
|-----------------------------------------|
|-----------------------------------------|
|-----------------------------------------|
|-----------------------------------------|


   A
Quiero tener agallas
para decirte todo
       E
lo que mi corazon
quiere decir.

   Bm
Tu boca, tu cabello
tus ojos me iluminan
     E                  E7
a un mundo que no tiene fin.

   A
Talvez un dia de estos
me tomare el valor
   E
de ir a platicar sobre mi.

    Bm
Te tomare del pelo
te dire buenos dias
  E                   E7
acaso no podria ser asi.

         Bm
Eres tan linda que me da pena
         E7
a mi hablarte...
          A
con esos ojos que me matan
         E      E7
yo ya quiero besarte...

CORO

         A
Eres la niña de mis sueños
   E
bonita de verdad
           Bm
Un poco cherry, un poco loca
     E
ay diablos que mas da.

       A
Yo quisiera en este mundo
    E
ser tu novio ideal
        Bm            E
para cantarte y decirte...
                             (A)
...que no puedo vivir sin ti

   A
|--9----9----9----9----9----9----9----9----|
|----10---10---10---10---10---10---10---10-|
|------------------------------------------|
|------------------------------------------|
|------------------------------------------|
|------------------------------------------|

   E
|--7----7----7----7----7----7----7----7----|
|----9----9----9----9----9----9----9----9--|
|------------------------------------------|
|------------------------------------------|
|------------------------------------------|
|------------------------------------------|

   Bm
|--7----7----7----7----7----7----7----7----|
|----7----7----7----7----7----7----7----7--|
|------------------------------------------|
|------------------------------------------|
|------------------------------------------|
|------------------------------------------|

   E
|--7----7----7----7----7----7----7----7----|
|----9----9----9----9----9----9----9----9--|
|------------------------------------------|
|------------------------------------------|
|------------------------------------------|
|------------------------------------------|


         Bm
Eres tan linda que me da pena
         E7
a mi hablarte...
          A
con esos ojos que me matan
         E      E7
yo ya quiero besarte...

Coro
         A
Eres la niña de mis sueños
   E
bonita de verdad
           Bm
Un poco cherry, un poco loca
     E
ay diablos que mas da.

       A
Yo quisiera en este mundo
    E
ser tu novio ideal
        Bm            E7
para cantarte y decirte...

         A
Eres la niña de mis sueños
   E
bonita de verdad
           Bm
Un poco cherry, un poco loca
     E
ay diablos que mas da.

       A
Yo quisiera en este mundo
    E
ser tu novio ideal
        Bm            E
para cantarte y decirte...
                             A...
...que no puedo vivir sin ti
Suggest correction
Give kudos to tab author, rate the tab!
1 2 3 4 5
comments
print report bad tab
guest
You may want to rate the tab now too:
select rating
Wanna post a correction for this tab? Suggest correction