Oops, an error
Loading. Please wait.

Camaleón Tab

version 1
version 1

Whole song

164 views 1 this week
no commentswrite comment
1 2 3 4 5
2 more votes to show rating
add to favorites
launch autoscroll
font size
0
reset
how to read this tab
guitar tuner
Autoscroll
slow
fast
+/-
esc
set tempo
stop
Riff A

   C#m                E                  A
||------------------|------------------|----0--0--0----|
||--5-5-5-5-5-5-5-5-|--5-5-5-5-5-5-5-5-|--2--2--2--2-2-|
||-6-6-6-6-6-6-6-6--|-4-4-4-4-4-4-4-4--|-2-2--2--2--2--|
||------------------|------------------|---------------|
||------------------|------------------|---------------|
||------------------|------------------|---------------|

1.,2.
  B
|----0--0--0----||
|--4--4--4--4-4-||
|-4-4--4--4--4--||
|---------------||
|---------------||
|---------------||

3.
G1 C#m
G2 (G#m)
 |----0--0-----------||
 |--4--4--4-4-4-4-4--||
 |-4-4--4--4-4-4-4-4-||
 |-------------------||
 |-------------------||
 |-------------------||


Riff B

   B
||-12----12----12----12-----||
||---13----13----13----13---||
||-----12----12----12----12-||
||--------------------------||
||--------------------------||
||--------------------------||


Intro:

Guitarra 1: Riff A

Guitarra 2: Solo (No Lo Tengo)

F#m - B - G#m
F#m - B - G#m


E        C#m
 Camaleón

A            F#m           E
 Disfraz del odio y el amor

      C#m        A
 Se perdió,

A             F#m        B (Riff B)
 en la sonrisa artificial

               F#m
Que guarda la furia

     B (Riff B)
Verdad

             F#m
El tiempo ya nunca

   E - A - B
Es igual...

   E - A - B
es igual...


Solo:
F#m - B - G#m
F#m - B - G#m


F#m                B     G#m
Es que ya no puedo verte


F#m         B     G#m
Camaleón unicolor


F#m          B        G#m
Es mejor no detenerse


F#m           A
Sin temor de irnos hoy


E - C#m - F#m
Camaleón

E - C#m - F#m
Camaleón


B           F#m
Ahhh olvida la furia

B
Verdad

F#m
El tiempo ya nunca


   E - A - B
Es igual...

   E - A - B
es igual...  (Ya nunca es)

   E - A - B
Es igual...

   E - A - B
es igual...


A  B
A - G#m - F#m - E - B


Final: E B E B (De Esta Parte No Estoy Seguro)

Uhhh, uhhhh
Uhhh, uhhhh.
Suggest correction
Give kudos to tab author, rate the tab!
1 2 3 4 5
comments
print report bad tab
guest
Wanna post a correction for this tab? Suggest correction