Oops, an error
Loading. Please wait.

El Día Tab

64 views 1 this week
no commentswrite comment
1 2 3 4 5
3 more votes to show rating
add to favorites
launch autoscroll
font size
0
reset
how to read this tab
guitar tuner
Autoscroll
slow
fast
+/-
esc
set tempo
stop
Help us to improve Ultimate-Guitar.com Take our survey!
×
Intro:


    D                  A#                    Em
e]--2--2--5--3--2------1--1------9----7------7---7---7---7----
B]--3--3--7--------3---3--3------------------8---8---8---8----
G]--2--2--7------------3--3--3/9---7---7----------------------
D]---------------------------------------------9---9---9------

  A
--5---5----7---5----]
--5---5----5---5----]
--------------------]
----7---7----7------]

Acordes:

Dsus9
E]-0---
B]-3---
G]-2---

El "Em" es de la siguiente forma:

E]-3---
B]-5---
G]-4---
D]-2---
A]-2---
E]-2---


  D                     Dsus9
Y si te vas regresa pronto
  Em          A
Recordaremos viajes
  D                     Dsus9
Decir adiós fue algo nuevo
  Em        A
Tenía que pasarte


--Esta parte es igual al intro, pero con Wah en la Segunda guitarra--


    D                  A#               Em
e]--2--2--5--3--2------1--- 9------7----7---7---7---7----
B]--3--3--7--------3---3----------------8---8---8---8----
G]--2--2--7------------3-3/9---7---7---------------------
D]----------------------------------------9---9---9------

  A
--5---5----7---5----]
--5---5----5---5----]
--------------------]
----7---7----7------]


     D                    Dsus9
Sin verlo te irás yendo lento
Em             A
Cambiaremos de aire
  D                       Dsus9
Mañana no será lo nuestro hoy
    Em             A
El tiempo fue un cobarde

     Em         G
Y el día que se va
D       F#m  Em
No va a regresar
    G          D
Ya nunca más
               D Dsus9 Em A  (x2)
Vuelve a su lugar


     Em         G
Y el día que se va
D       F#m  Em
No va a regresar
    G          D
Ya nunca más
               D Dsus9 Em A  (x2)
Vuelve a su lugar

e]-----------------7oh9--7----10--7--12-9---
B]-7--10oh8--7-------------10---------------
G]-------------7/9--------------------------

Este riff va ?Paralelo? a las últimas 2 vueltas y termina en D.

Espero les sirva esta colaboración, disfruten este buen disco.

Contacto: claroscuro_070@
Twitter: @jedvamo
Suggest correction
Give kudos to tab author, rate the tab!
1 2 3 4 5
comments
print report bad tab
guest
You may want to rate the tab now too:
select rating
Wanna post a correction for this tab? Suggest correction