Oops, an error
Loading. Please wait.

Extraños Chords

319 views 1 this week
no commentswrite comment
1 2 3 4 5
3 more votes to show rating
add to favorites
launch autoscroll
font size
0
reset
transpose
0
reset
simplify chords
display chords
guitar tuner
Autoscroll
slow
fast
+/-
esc
set tempo
stop
Help us to improve Ultimate-Guitar.com Take our survey!
×
esta es una cancion dedicada para mi amigo victor,,
 mi amigo beto,, mi amigo alex,,, mi a otro amigo humberto,,,
 mi novia martha ,,,, y todos los zhicos de alfalfa y hormiga
los kiero mucho =P


Am                  C
Vamos ocultando el recuerdo
F                  C
Que nos deja cada momento
Dm                 C          E - E7
Y en aquella vida pasada se fue

Am                   C
Luego nos volvimos extraños
F                    C
Es el precio de ser humanos
Dm                  C           E - -E7
Y en ese profundo silencio se fue

Am        C          F          C
Y te vi suspirar el dolor y la calma
        Dm        C            E - E7
 de la eterna soledad de la distancia

      Am        C          F          C
Y me fui en el mar de la inmensa oscuridad
Dm            C               E - E7
Esperando rescatar vivos los sueños

E|-------------------------------|---------------------|
B|--6-------------------------6--|---------------------|
G|----8--6-------6---6---6--8----|------6---6---6---8--|
D|-----------8-8---8---8---------|--8-8---8---8------6-|
A|-------------------------------|---------------------|
E|-------------------------------|---------------------|

|-------------------------------|----------------|
|--6--------------------------6-|-5--5-6---------|
|----8--6--------6---6---6--8---|--6------8--6---|
|------------8-8---8---8--------|--------------8-|
|-------------------------------|----------------|
|-------------------------------|----------------|
Am      C           F       C
Vamos ocultando el recuerdo
Am      C           F       C
Vamos ocultando el recuerdo


Am        C          F          C
Y te vi suspirar el dolor y la calma
        Dm        C            E - E7
 de la eterna soledad de la distancia

      Am        C          F          C
Y me fui en el mar de la inmensa oscuridad
Dm            C               E     - E7
Esperando rescatar vivos los sue.....ños....

Am-C-F-C-Dm-C-E-E7-Am
Suggest correction
Give kudos to tab author, rate the tab!
1 2 3 4 5
comments
print report bad tab
guest
You may want to rate the tab now too:
select rating
Wanna post a correction for this tab? Suggest correction