Oops, an error
Loading. Please wait.

Niña De Papa Tab

19 views 3 this week
no commentswrite comment
1 2 3 4 5
3 more votes to show rating
add to favorites
launch autoscroll
font size
0
reset
how to read this tab
guitar tuner
Autoscroll
slow
fast
+/-
esc
set tempo
stop
Help us to improve Ultimate-Guitar.com Take our survey!
×
Colocar la cejilla o el capo en el 2º traste, la canción está
en el tono de F#m, no obstante es mas fácil con el capo tocándola como
en posición de Em

(*) Siempre con la cejilla o capo en el 2º traste (*)


Pre-Intro:

E||--------------------------------------------------||
B||---5-5-5-3-5-(x2) 5-3-0---------------------------||
G||-----------------------2------0-2-4-2-0-----------||
D||-------------------------0-2------------0-2-0-2---||
A||--------------------------------------------------||
E||--------------------------------------------------||

Intro:
         A     Em        C       D         C      D      (x2)
E||----------|---------|----|----------|------|-------||
B||----------|---------|----|----------|------|-------||
G||----------|---------|----|----------|------|-------||
D||----------|---------|----|----------|-5555-|-7777--||
A||----------|---------|-33-|3-5-6-5-3-|-3333-|-5555--||
E||-0-3-4-555|-5-00-00-|----|----------|------|-------||

Em  ( E----3--2---2---0--- )


Verso 1

Em                                      A                  C
Ya son las seis y estás tan intoxicada, ya no ves nada, sólo bailas.
Em                                       A            C
Y tu mamá está en casa preocupada, ya no sabe a quien llamar.

Em  ( E----3--2---2---0--- )


         A     Em        C       D
E||----------|---------|----|----------||
B||----------|---------|----|----------||
G||----------|---------|----|----------||
D||----------|---------|----|----------||
A||----------|---------|-33-|3-5-6-5-3-||
E||-0-3-4-555|-5-00-00-|----|----------||


Verso 2

Em                                          A
Tú tienes la atención de todas las miradas,nadie sabe nada
    C                 Em
y no quieres volver, a casa con papá, la mesa preparada,
     A                  B
tienes dinero y quieres beber


ESTRIBILLO


          A        Em            C                           D
por eso sí, sí, sí,me gustas si cuando menos me lo espero te vas.
                           (Tanto)
         A         Em             C    Em    G    Em
Por eso sí, sí, sí,me pones,tan fa,fa,fa,fa  fa,fa,fa,fa
                                    (Dulce niña de papa)
C            Em           G              Em
La la lara lara la la lara lara la la laralara la [X2]


Em  ( E--0--2--3--5---)


Verso 3

Em                                  A                  C
Ya se que tú estás endemoniada, no quieres nada,sólo jugar,
Em                                   A            C
a ser la rock star de tu manada,no te sale nada mal.
Em                                       A
Tú tienes la razón, tú tienes la mirada,sabes lo que quieres
       C          Em
y aquí lo tienes, ya suena tú canción en todos los programas,
A                       B
tienes dinero y quieres beber


Solo:

A     Em        C       D         (x2


ESTRIBILLO


          A        Em            C                           D
por eso sí, sí, sí,me gustas si cuando menos me lo espero te vas.
                           (Tanto)
         A         Em             C    Em    G    Em
Por eso sí, sí, sí,me pones,tan fa,fa,fa,fa  fa,fa,fa,fa
                                    (Dulce niña de papa)
C            Em           G              Em
La la lara lara la la lara lara la la laralara la [X2]

Fin
         A     Em        C       D         (x3)  Em
E||----------|---------|----|----------||
B||----------|---------|----|----------||
G||----------|---------|----|----------||
D||----------|---------|----|----------||
A||----------|---------|-33-|3-5-6-5-3-||
E||-0-3-4-555|-5-00-00-|----|----------||
Suggest correction
Give kudos to tab author, rate the tab!
1 2 3 4 5
comments
print report bad tab
guest
You may want to rate the tab now too:
select rating
Wanna post a correction for this tab? Suggest correction