Oops, an error
Loading. Please wait.

Señor De La Esperanza Tab

by Siembra
50 views 1 this week
no commentswrite comment
1 2 3 4 5
3 more votes to show rating
add to favorites
launch autoscroll
font size
0
reset
how to read this tab
guitar tuner
Autoscroll
slow
fast
+/-
esc
set tempo
stop
INTRO (GUITARRA)

E--------------------------------------------|
B--------------------------------------------|
G--------------------------------------------|
D-9-7----------------------------------------|
A-----10-9-7-5--5-5-5-5-3-2-3-2-----2-3-5-5--|
E-------------------------------5-3----------|


E---------------------------------------------------------|
B---------------------------------------------------------|
G---------------------------------------------------------|
D-2-0h2h0-------------------------------------------------|
A---------2-3-2---2-3-55--3-2-3-2-----2-3-55--3-2-3-2-----|
E---------------2-----------------5-2-----------------5-3-|


E--------------------------------------------------|
B-----------------------------------------------8--|
G---------------------------------------------7----|
D---------2-2-2-2--2h0-----------------------------|
A--2-3-55--------------5-5-5-5-5--3-2-3-2----------|
E-----------------------------------------5-3------|


E------7---5---3---2---0---------------------|
B--5h8---7---5---3---1-----3-----------------|
G------------------------4-----2-0-0h1-0---0-|
D----------------------------4-----------4---|
A--------------------------------------------|
E--------------------------------------------|    x 2


SOL                             RE
Entre las casitas, de esteras y palos
                                              SOL
en medio del polvo de nuestras calles vas caminando.
             DO                  SOL
'Saludando a todos, nos llamas vecino
                RE                            SOL  SOL7
nos aprietas fuerte la mano y nos llevas contigo     [BIS]


CORO

             RE                 SOL
Vamos construyendo, un mundo distinto
            DO                  RE              SOL
vamos arrancando la piedra que hay en los corazones
               DO                 SOL
'vamos conquistando nuestra libertad
              RE                   SOL
con tu mano amiga señor de la esperanza   [BIS]


E------7---5---3---2---0---------------------|
B--5h8---7---5---3---1-----3-----------------|
G------------------------4-----2-0-0h1-0---0-|
D----------------------------4-----------4---|
A--------------------------------------------|
E--------------------------------------------|    x 2

SOL                            RE
Todas las mañanas, vamos al trabajo
                                               SOL
y en medio de todos tu voz perdida llena el silencio
              DO                  SOL
'cantas con nosotros, pidiendo justicia
              RE                            SOL
levantando firme tu voz, nos llamas y nos animas (BIS)


CORO

             RE                 SOL
Vamos construyendo, un mundo distinto
            DO                  RE              SOL
vamos arrancando la piedra que hay en los corazones
               DO                 SOL
'vamos conquistando nuestra libertad
              RE                   SOL
con tu mano amiga señor de la esperanza   [BIS]


E----10----10----10---10----10----10---|
B-------12----12---------12----12------|
G--------------------------------------|
D--------------------------------------|
A--------------------------------------|
E--------------------------------------|

E----10----10----10---10----10----10---|
B-------10----10---------10----10------|
G--------------------------------------|
D--------------------------------------|
A--------------------------------------|
E--------------------------------------|

E----10----10----10---12----12----12---|
B-------12----12---------12----12------|
G--------------------------------------|
D--------------------------------------|
A--------------------------------------|
E--------------------------------------|

E----10-10-10-10-10--------------------|
B-------------------13-12-13-12-10-----|
G----------------------------------12--|
D--------------------------------------|
A--------------------------------------|
E--------------------------------------|


E------7---5---3---2---0---------------------|
B--5h8---7---5---3---1-----3-----------------|
G------------------------4-----2-0-0h1-0---0-|
D----------------------------4-----------4---|
A--------------------------------------------|
E--------------------------------------------|    x 2


              SOL             RE
Al caer la tarde, juntos a la mesa
                                               SOL
compartiendo el pan al calor del fuego de tu cariño
             DO                  SOL
'padre de bondades, padre de ternuras
            RE                                SOL     SOL7
en tu seno acunas el rostro alegre de tus criaturas  [BIS]


CORO

             RE                 SOL
Vamos construyendo, un mundo distinto
            DO                  RE              SOL
vamos arrancando la piedra que hay en los corazones
               DO                 SOL
'vamos conquistando nuestra libertad
              RE                   SOL
con tu mano amiga señor de la esperanza   [BIS]

FINAL

   DO   RE  SOL
E--0-0--2-2--2------|
B--1-1--3-2--2------|
G--0-0--2-2--0------|
D--2-2--0-0--0------|
A--3-3--0-0--2------|
E--0-0-------3------|


Espero les guste, atte Pedro Yalico   pyarock@
esta cancion me la dedico a mi pues me gusta mucho su melodia y letra.
Suggest correction
Give kudos to tab author, rate the tab!
1 2 3 4 5
comments
print report bad tab
guest
Wanna post a correction for this tab? Suggest correction