Oops, an error
Loading. Please wait.

Si Los Hombres Han Llegado Hasta La Luna Tab

131 views 1 this week
no commentswrite comment
1 2 3 4 5
3 more votes to show rating
add to favorites
launch autoscroll
font size
0
reset
how to read this tab
guitar tuner
×
Best way to learn
"Si Los Hombres Han Llegado Hasta La Luna"
Autoscroll
slow
fast
+/-
esc
set tempo
stop
Weno,no ay a quien dedicarla x el momento xD pero weno ojala les
guste, no s perfecta (lo c) pro algo s algo px. No la pirateen
dmasiado xD

acords q van a usar

F#  [244322]
F#7 [242322]
B   [224442]
G#  [466544]
c#  [x46664]
D#5 [x688xx]
c#5 [x466xx]
B5  [x244xx]
A#5 [x133xx]


CORO:
       F#7            B               G#         C#
Te enviare un ramo de besos que hice con mi corazon
   F#7            B               G#         C#
y en el cielo dormiremos entre nubes de algodon
     D#5             C#5
gritare a los cuatro vientos
         B5
que eras tu la ilusion
     G#5
que llevaba adentro
      F#         B5             F#7
y veras como es posible nuestro amor


1º riff

  F#7              G#                 F#            B
------------------------------------------------------7----6-------
-7------7-----7----9------9------9----7-----7------7---------9-----
-----6-----6-----------6------6----------6-----6----6---6----------
---8-----8------8----8------8------8----9----9---------------------
-------------------------------------------------------------------
-------------------------------------------------------------------


2do Riff

-9^^---14-13--9^^-------9^^--16-14-9^^----
------------------11-12-------------------
------------------------------------------
------------------------------------------
------------------------------------------
------------------------------------------
estos 2 riffs son simultaneos el tiempo lo ven uds


1era estrofa:

  F#7        B            G#         C#
Si los hombres han llegado hasta la luna
     F#7            B               G#             C#
Si desde Sevilla puedo hablar con alguien que esta en Nueva York
D#5             C#5
SI LA medicina cura
      B5               G#5
lo que antes era una muerte segura
     F#         B5             F#7
dime porque no es posible nuestro amor


2da estrofa:

   F#7          B              G#              C#
Si la bella con un beso convirtio a la bestia en un galan
   F#7            B               G#             C#
si las flores se marchitan y mas tarde vuelven a brotar
   D#5             C#5
si hay abuelos que se quieren
    B5               G#5
y su amor es todo lo que tienen
  F#         B5             F#7
dime porque no lo vamos a intentar


CORO:
       F#7            B               G#         C#
Te enviare un ramo de besos que hice con mi corazon
   F#7            B               G#         C#
y en el cielo dormiremos entre nubes de algodon
     D#5             C#5
gritare a los cuatro vientos
         B5
que eras tu la ilusion
     G#5
que llevaba adentro
      F#         B5             F#7
y veras como es posible nuestro amor


  F#7              G#                 F#            B
------------------------------------------------------7----6-------
-7------7-----7----9------9------9----7-----7------7---------9-----
-----6-----6-----------6------6----------6-----6----6---6----------
---8-----8------8----8------8------8----9----9---------------------
-------------------------------------------------------------------
-------------------------------------------------------------------
son simultaneos...

-9^^---14-13--9^^-------9^^--16-14-9^^----
------------------11-12-------------------
------------------------------------------
------------------------------------------
------------------------------------------
------------------------------------------


3era estrofa:

  F#7        B            G#         C#
Si hay poemas que se escriben con el alma

-----11----9---9----7-6^^-----
----9-----9---9----9----------
--11----11--11---11-----------
------------------------------

F#7            B               G#             C#
y miradas que se empañan cuando suena una cancion
    D#5             C#5
si los ojos son sinceros
      B5                     G#5
cuando alguien te mira y se escapa un te quiero
    F#         B5             F#7
dime porque no es posible nuestro amor

--------------------------5h6^^---
------------------7h9r7h9---------
-6-------6h8r6h8------------------
---9r8h9--------------------------
----------------------------------
----------------------------------


4ta estrofa:

  F#7        B            G#         C#
Si en la caracola se oyen los rumores de la mar
 F#7            B               G#             C#
las estrellas se encienden y mas tarde se vuelen a apagar
  D#5             C#5
si amanece cada dia
   B5                     G#5
y hay momentos que valen toda una vida
   F#         B5             F#7
dime porque no lo vamos a intentar

-11-9-7-6h7r6h7------
----------------7^^--
---------------------


CORO


1º F#7              G#                 F#            B
2da F#7                   A                B
------------------------------------------------------7----6-------
-7------7-----7----9------9------9----7-----7------7---------9-----
-----6-----6-----------6------6----------6-----6----6---6----------
---8-----8------8----8------8------8----9----9---------------------
-------------------------------------------------------------------
-------------------------------------------------------------------
 Lelelelelele.....

1º (saxo)
-13-11-13/16----13------
------------16----14----
------------------------

2da (saxo)
------18-16--------------18-16------------------------------
-16^^------18------16 16------18-------12^-14^-16^----------
-------------18^^---------------18^^---------------16^------
------------------------------------------------------------
------------------------------------------------------------
------------------------------------------------------------

----------------12b14-----
-13^-15^-17^--------------
------------17^-----------
--------------------------
--------------------------
--------------------------

1era estrofa:

  F#7        B            G#         C#
Si los hombres han llegado hasta la luna
     F#7            B               G#             C#
Si desde Sevilla puedo hablar con alguien que esta en Nueva York
D#5             C#5
SI LA medicina cura
      B5               G#5
lo que antes era una muerte segura
     F#         B5             F#7
dime porque no es posible nuestro amor

2da estrofa:

   F#7          B              G#              C#
Si la bella con un beso convirtio a la bestia en un galan
   F#7            B               G#             C#
si las flores se marchitan y mas tarde vuelven a brotar
   D#5             C#5
si hay abuelos que se quieren
    B5               G#5
y su amor es todo lo que tienen
  F#         B5             F#7
dime porque no lo vamos a intentar


CORO:
       F#7            B               G#         C#
Te enviare un ramo de besos que hice con mi corazon
   F#7            B               G#         C#
y en el cielo dormiremos entre nubes de algodon
     D#5             C#5
gritare a los cuatro vientos
         B5
que eras tu la ilusion
     G#5
que llevaba adentro
      F#         B5             F#7
y veras como es posible nuestro amor

1º
---------------------
-------------6--6^^--
------7-9-11---------
-9-10----------------
---------------------
---------------------
      F#         B5             F#7
y veras como es posible nuestro amor

2da
-----9-7-7r6^---------
----9-----------------
---8------------------
--8-------------------
Suggest correction
Give kudos to tab author, rate the tab!
1 2 3 4 5
comments
print report bad tab
guest
You may want to rate the tab now too:
select rating
Wanna post a correction for this tab? Suggest correction