Oops, an error
Loading. Please wait.

Si Tu No Estás Aquí Tab

36 views 1 this week
no commentswrite comment
1 2 3 4 5
3 more votes to show rating
add to favorites
launch autoscroll
font size
0
reset
how to read this tab
guitar tuner
Autoscroll
slow
fast
+/-
esc
set tempo
stop
Help us to improve Ultimate-Guitar.com Take our survey!
×
originalmente se toca en MI40... pero aca esta en MI45
para que no le bajen la nota a su guitarra

INTRO
|------------------------------------------|
|----9---9---9--8--8--8--6--6--6--6--6--6--|
|---10--10--10--8--8--8--6--6--6--6--6--6--|   se repite dos veces
|------------------------------------------|
|--8---8---8---6--6--6--4--4--4--4--4--4---|
|------------------------------------------|

|------------------------------------------|
|----9---9---9--8--8--8--6-----------------|
|---10--10--10--8--8--8--6-----------------|
|------------------------------------------|
|--8---8---8---6--6--6--4------------------|
|------------------------------------------|

    DO#               SOL# 
        No puedo imaginar
    DO#              SOL# 
        vivir un día más
    DO#              SOL# 
        alejado de tu mano
    DO#                   SOL# 
        y solo me queda decir

CORO               FAm     DO# 
        Que sin tu amor
               SOL#    RE# 
        no podría existir
                 FAm     DO# 
        puedo morir
           SOL#           RE# 
        si tu no estas aquí


    DO#        SOL# 
        MI corazón                   (*)
    DO#               SOL#           |-------------------------|
        No puede asimilar            |-------------------------|
  FAmDO#                 Fam(*)       |-------------------------|
        Que tú murieras por mí       |-5-5-5-1-1-1-5-5-5-1-1-1-|
    DO#                 SOL#         |-3-3-3-3-3-3-3-3-3-3-3-3-|
        Y solo me queda decir        |-------------------------|

CORO               FAm    DO# 
        Que sin tu amor
               SOL#    RE# 
        no podría existir
                 FAm    DO# 
        puedo morir
           SOL#           RE# 
        si tu no estas aquí
                   FAm     DO# 
        Que sin tu amor
                SOL#      RE# 
        No tendria donde ir
                   FAm     DO# 
        pues si te vaz
           SOL#        RE# 
        ya nada seria igual

SOLO
      SOLm  RE#    LA#             FA 
|------------------------------------------------|
|-0-0-2/3----------3-2---3-2---3-2-3-2---3-2-----|
|----------------------3-----3---------3-----3---|
|------------------------------------------------|
|------------------------------------------------|
|------------------------------------------------|

      SOLm     RE#     LA#      FA 
|----------------------18-17-15-13---------------|
|------------------------------------------------|
|-----7-5-7-8--7-5-7-8---------------------------|
|------------------------------------------------|
|------------------------------------------------|
|------------------------------------------------|

CORO               LAm  FA 
        Que sin tu amor
                DO       SOL 
        No tendría donde ir
           LAm           FA 
        Si tú te vas, Si tu no estas
           DO           SOL 
        Si tu no estas aquí

bueno eso es... ojala les sirva de ayuda...
como es mi pruimera transcripcion... no quiero despedirme
sin agradecer a la personita que llena mi vida
GRACIAS DIANITA
tu CAE
Suggest correction
Give kudos to tab author, rate the tab!
1 2 3 4 5
comments
print report bad tab
guest
You may want to rate the tab now too:
select rating
Wanna post a correction for this tab? Suggest correction