Oops, an error
Loading. Please wait.

Si Tu No Estás Aquí Chords

version 2
version 2

Whole song

by Siete
31 views 1 this week
no commentswrite comment
1 2 3 4 5
3 more votes to show rating
add to favorites
launch autoscroll
font size
0
reset
transpose
0
reset
simplify chords
display chords
guitar tuner
×
Best way to learn
"Si Tu No Estás Aquí"
Autoscroll
slow
fast
+/-
esc
set tempo
stop
ACORDES:> Fm C#sus2 G# D#sus2

Hola mi nombre es Richard y es mi segunda rola espero que les guste
alguna duda a mi correo Richard-473@
viva el rock boliviano

Intro:  punteo
E -------------------------------------------------
B ---9---9---9---8---8---8---6---6---6---6---6---6-
G -------------------------------------------------esto se repite
D -------------------------------------------------   2 veces
A -8---8---8---6---6---6---4--4---4---4---4---4----
E -------------------------------------------------

E --------------------------------------------
B ----9---9---9---8---8---8---6---------------
G --------------------------------------------
D --------------------------------------------
A --8---8---8---6---6---6-----4----------------
E --------------------------------------------


C#sus2        G#
No puedo imaginar
Vivir un día más
Dejado de tu mano
Y solo me queda decir

Coro:

 Fm
Que sin tu amor
 C#sus2
No podría existir
 G#
Puedo morir
 D#sus2
Si tu no estas aquí


 C#sus2        G#
Mi corazón
No puede asimilar
Que tú murieras por mí
Y solo me queda decir

Coro:

 Fm
Que sin tu amor
 C#sus2
No podría existir
 G#
Puedo morir
 D#sus2
Si tu no estas aquí

 Fm
Que sin tu amor
 C#sus2
No tendría donde ir
 G#
Pues si te vas
 D#sus2
Ya nada seria igual


En esta parte se hace una combinación de guitarras mientras uno hace
punteo otro le sigue con rasgueo según el ritmo de la música.

Punteo en: Fm  C#sus2 G#  D#sus2

E -------------------------------------------------------------------
B -----------6-----6-5---6-5-6-5----6-5---6-5-6-5----6-5---6-5-6-5---
G --7-7--9-------------5---------5------5---------5------5---------5-
D -------------------------------------------------------------------
A -------------------------------------------------------------------
E -------------------------------------------------------------------

E ----------------------   Bueno esto es el punteo, hay una serie de
B ---11-10--------------   espacios en el punteo. Si tocas solo/a a tu
G ---------11--8--------   gusta lo haces el rasgueo o punteo.
D ----------------------   Bueno no me alcanzo mucho el espacio para
A ----------------------   hacer el punteo por eso lo hice abajo.
E ----------------------

 Fm
Que sin tu amor
 C#sus2
No tendría donde ir
 G#
Si tú te vas
 D#sus2
Si tu  no estas
 D#sus2
Si tu  no estas aquí

 Fm
Que sin tu amor
 C#sus2
No tendría donde ir
 G#
Si tú te vas
 D#sus2
Si tu  no estas
 D#sus2
Si tu  no estas aquí
Suggest correction
Give kudos to tab author, rate the tab!
1 2 3 4 5
comments
print report bad tab
guest
You may want to rate the tab now too:
select rating
Wanna post a correction for this tab? Suggest correction