Oops, an error
Loading. Please wait.

Chica Cósmica Tab

80 views 3 this week
no commentswrite comment
1 2 3 4 5
3 more votes to show rating
add to favorites
launch autoscroll
font size
0
reset
how to read this tab
guitar tuner
Autoscroll
slow
fast
+/-
esc
set tempo
stop
Help us to improve Ultimate-Guitar.com Take our survey!
×
e|---------12-12-12-12-12-11-9-----|
b|------------------------------12-|
g|-9-9-9-9-------------------------|
D|---------------------------------|
A|---------------------------------|
E|---------------------------------|

e|----------9-9-9-9-9-9-9-9-9-9-------------------|
b|-12-11-12---------------------12-10-------------|
g|------------------------------------13--13-11---|
D|----------------------------------------------13|
A|------------------------------------------------|
E|------------------------------------------------|


Se repite una vez mas.

Y el tema se llama "Mujer Cósmica", no "Chica".

yopichi89@
Suggest correction
Give kudos to tab author, rate the tab!
1 2 3 4 5
comments
print report bad tab
guest
You may want to rate the tab now too:
select rating
Wanna post a correction for this tab? Suggest correction