Oops, an error
Loading. Please wait.

Costañera Tab

28 views 1 this week
no commentswrite comment
1 2 3 4 5
3 more votes to show rating
add to favorites
launch autoscroll
font size
0
reset
how to read this tab
guitar tuner
Autoscroll
slow
fast
+/-
esc
set tempo
stop
Help us to improve Ultimate-Guitar.com Take our survey!
×
La primera parte se repite dos veces...

1/-----13-12-10-13-12-10-13-10-13-12-10-13--
2/------------------------------------------

1/-----13-12-10-13-12-10-13-10-12-10-8-12---
2/------------------------------------------

1/----12-10-8-12-10-8-12-8-12-10-8-12-------
2/------------------------------------------

1/------12-10-8-12-10-8-12-8-10----------10-
2/------------------------------10-------10-
3/---------------------------------10----10-

Esta parte que viene ahora va a duo con el tecladito..

1/---------------------------------------------------
2/----5-6-5-6-----5-6-5--------3-5-3-5-----3-5-3-----
3/---7-------7---7------7-5---5-------5---5-----5-5/7

1/---10--12-13-12-13-10--10-12-13-12-10-8------------
2/---------------------------------------------------

1/----8--10-12-10-12-8--8-10-12-10-8-10-----------10-
2/--------------------------------------10--------10-
3/-----------------------------------------10-----10-


Bueno gente este punteo es facil y mas si lo escuchas lo sacas
al  que el tema este en Dom y en Sib pero yo lo hago en
Rem Y Do. fijense cual les suena mejor. si es el de Dom menor
bajenle un tono al punteo
$$$$$$$$$$$$$$$$CHETESTUDIOS$$$$$$$$$$$$$$$$$$$$
Suggest correction
Give kudos to tab author, rate the tab!
1 2 3 4 5
comments
print report bad tab
guest
You may want to rate the tab now too:
select rating
Wanna post a correction for this tab? Suggest correction