Oops, an error
Loading. Please wait.

Exótica Tab

151 views 1 this week
no commentswrite comment
1 2 3 4 5
3 more votes to show rating
add to favorites
launch autoscroll
font size
0
reset
how to read this tab
guitar tuner
×
Best way to learn
"Exótica"
Autoscroll
slow
fast
+/-
esc
set tempo
stop
Aca les paso los acordes y el intro de Exotica.
La canción solo tiene dos acordes Cm - Bb


Cm                   Bb
Negrita tus ojos me queman
                       Cm
tambien el calor de tu piel
                       Bb
negrita tus ojos me queman
                       Cm
tambien el calor de tu piel

tu hermoso cuerpo me enloquece
y el suave aroma de tu ser
tu hermoso cuerpo me enloquece
y el suave aroma de tu ser

Cm                   Bb
exotica, exotica, exotica
                 Cm
exotica eres mi amor
                   Bb
exotica, exotica, exotica
                 Cm
exotica eres mi amor

exotica, exotica, exotica
exotica eres mi amor
exotica, exotica, exotica
exotica eres mi amor

Cm                     Bb
tus labios rojos se iluminan
                  Cm
como el sol al amanecer
                      Bb
tus labios rojos se iluminan
                 Cm
como el sol al amanecer

bailas moviendo las caderas
la cumbia se mete en tu piel
bailas moviendo las caderas
la cumbia se mete en tu piel

exotica, exotica, exotica
exotica eres mi amor


 e|---8-8---8-8--6-------|----6-6----6-6--8--6---------|
 b|-8-----8--------6-----|--6------6-------------------|
 g|------------------7---|----------------------5------|
 d|----------------------|-----------------------------|
 a|----------------------|-----------------------------|
 E|----------------------|-----------------------------|


 e|---8-8---8-8--6-------|----6-6-----6--6--8----------|
 b|-8-----8--------6-----|--6------6-------------------|
 g|------------------7---|-----------------------------|
 d|----------------------|-----------------------------|
 a|----------------------|-----------------------------|
 E|----------------------|-----------------------------|


 e|---8--11--11--8--11--8--10------|--6--10--10--6--10--6--11--8--8--|
 b|----------------------------11--|---------------------------------|
 g|--------------------------------|---------------------------------|
 d|--------------------------------|---------------------------------|
 a|--------------------------------|---------------------------------|
 E|--------------------------------|---------------------------------|


 e|---8--11--11--8--11--8--10------|--6--10--10--6--10--6--11--8--8--|
 b|----------------------------11--|---------------------------------|
 g|--------------------------------|---------------------------------|
 d|--------------------------------|---------------------------------|
 a|--------------------------------|---------------------------------|
 E|--------------------------------|---------------------------------|


 e|--10--8--6--8--|--11--10--11-----|
 b|---------------|-----------------|
 g|---------------|-----------------|
 d|---------------|-----------------|
 a|---------------|-----------------|
 E|---------------|-----------------|


Espero que les guste y sirva.
Agosto 27, 2012
Suggest correction
Give kudos to tab author, rate the tab!
1 2 3 4 5
comments
print report bad tab
guest
You may want to rate the tab now too:
select rating
Wanna post a correction for this tab? Suggest correction