Oops, an error
Loading. Please wait.

Loco Corazón Chords

24 views 3 this week
no commentswrite comment
1 2 3 4 5
3 more votes to show rating
add to favorites
launch autoscroll
font size
0
reset
transpose
0
reset
display chords
guitar tuner
Autoscroll
slow
fast
+/-
esc
set tempo
stop
Help us to improve Ultimate-Guitar.com Take our survey!
×
SIETE LUNAS: LOCO CORAZON


INTRO:
E/---------------------------------------------------------
A/---------------------------------------------------------
D/-------------7-----7---6---5-----------------------------
G/-----------7---5-----5---4---3---------------------------
 B/--6-5-6-5-----------------------3-2-3--5-6-8-6--5-3-5----
E/---------------------------------------------------------

SIGUE ASI!!!

E/---------------------------------------------------------
A/---------------------------------------------------------
D/---------------------------------------------------------
G/--------------6-7------------------14----14---13---12----
B/--------6-5---------------------15----13----13---12- 11--
E/--5-3--------------13-12-13-12---------------------------

SIGUE ASI!!!

E/---------------------------------------------------------
A/---------------------------------------------------------
D/---------------------------------------------------------
G/--------------------------------------------6-7----------
B/---------------------------------------6-5---------------
E/--10-9-10--12-13-15-13-12-10-12---5-3--------------------


EMPIEZA A CANTAR!!!!

Dm                  Am G#m
ESTOY LOCO LOCO CORAZON
Gm       Bb          C
EMBRIAGADO ESTA DE TANTO AMARTE A TI
Dm                  Am    G#m                   2 VECES
SUFRE SUFRE SUFRE DE PASION POR TI
Gm      Bb           C
Y SOLO LE DAS TANTA INFIDELIDAD?

Dm        Am     G#m
ES UNA CONDENA TÚ AMOR
Gm        Bb              C
SOS INDIFERENTE CON MIS SENTIMIENTOS
Dm        Am     G#m
ES UNA CONDENA TÚ AMOR
Gm            Bb               C
CUANDO CALLA TU RISA A LOS CUATRO VIENTOS?


 (INTRO)

Dm                       Am      G#m
CADA DIA QUE PASA YO SUEÑO CON TU AMOR
Gm        Bb               C
MARIPOSA HERMOSA VUELAS DE FLOR EN FLOR
Dm                       Am  G#m               2  VECES
AUNQUE YO NO QUIERA SIGO PENSANDO EN TI
Gm           Bb          C
ESTE FUE EL DESTINO QUISO QUE SEA ASI?

Dm        Am     G#m
ES UNA CONDENA TÚ AMOR
Gm       Bb          C
SOS INDIFERENTE CON MIS SENTIMIENTOS
Dm        Am     G#m
ES UNA CONDENA TÚ AMOR
Gm            Bb                C
CUANDO CALLA TU RISA A LOS CUATRO VIENTOS?


(SOLO: D -G-A)  X  2


Y TERMINA HACIENDO LA INTRO!!!


LA CANCION ESTA PERFECTA!!!

ESPERO QUE LES SALGA!!!

ESTA CANCION VA SIN DEDICACION!!!

PORQUE YA SABE PARA QUIEN ES!!!

CCCHHHAAAUUU!!!!

SUERTEEEE!!!!

VAMOS MANTO NEGRO R?N?R


CCCHHHAAAUUU!!!
Suggest correction
Give kudos to tab author, rate the tab!
1 2 3 4 5
comments
print report bad tab
guest
You may want to rate the tab now too:
select rating
Wanna post a correction for this tab? Suggest correction