Oops, an error
Loading. Please wait.

Loco Corazón Tab

84 views 1 this week
no commentswrite comment
1 2 3 4 5
3 more votes to show rating
add to favorites
×
Save as Personal and add changes to this tab that will be seen only by you. Learn more ›
×
You can save this tab as Personal to edit and correct it or add notes. All changes will be seen only by you. Learn more »
save as personal
new!
launch autoscroll
font size
0
reset
how to read this tab
guitar tuner
Autoscroll
slow
fast
+/-
esc
set tempo
stop
Intro:

-----------------------------------------------5-----------------
-6-5-6-5-------------------3-2-3-5-6-8-6-5---5---8-6-5-----------
---------7---5---5---4---3-----------------7-----------6-7----x2-
-----------7---7---6---5-----------------------------------------
-----------------------------------------------------------------
-----------------------------------------------------------------


-13-12-13-12----------------------------10-9-10-12-13-15-13-12---
-------------15----13----13----12----11------------------------15
----------------14----14----13----12-----------------------------
-----------------------------------------------------------------
-----------------------------------------------------------------
-----------------------------------------------------------------


-12--5-----------------------------------------------------------
-------8-6-5-----------------------------------------------------
-------------6-7-------------------------------------------------
-----------------------------------------------------------------
-----------------------------------------------------------------
-----------------------------------------------------------------


REm                  LAm SOL#m
ESTOY LOCO LOCO CORAZON

                  ----------------
                  ----------------
                  ----5---4---3---
                  --7---6---5-----
                  ----------------
                  ----------------
SOLm       SIb          DO
EMBRIAGADO ESTA DE TANTO AMARTE A TI

                              -----------8-5-7-8-7-5-------
                              -----------------------8-6---
                              -----5-5-5-------------------
                              -----------------------------
                              -----------------------------
                              -----------------------------
REm                  LAm    SOL#m
SUFRE SUFRE SUFRE DE PASION POR TI

                               ------8---7---6---------
                               ------------------------
                               ----5---4---3-----------
                               ------------------------
                               ------------------------
                               ------------------------
SOLm      SIb           DO
Y SOLO LE DAS TANTA INFIDELIDAD?

                              -----------8-5-7-8-7-5-------
                              -----------------------8-6---
                              -----5-5-5-------------------
                              -----------------------------
                              -----------------------------
                              -----------------------------

REm                  LAm SOL#m
ESTOY LOCO LOCO CORAZON


                       -------5-8----5-6-8-6-5----------
                       -----5------5-----------8-6------
                       ---5-----------------------------
                       ---------------------------------
                       ---------------------------------
                       ---------------------------------

SOLm       SIb          DO
EMBRIAGADO ESTA DE TANTO AMARTE A TI


                              -----------8-5-7-8-7-5-------
                              -----------------------8-6---
                              -----5-5-5-------------------
                              -----------------------------
                              -----------------------------
                              -----------------------------

REm                  LAm    SOL#m
SUFRE SUFRE SUFRE DE PASION POR TI

                           ----------------
                           ----------------
                           ----5---4---3---
                           --7---6---5-----
                           ----------------
                           ----------------

SOLm      SIb           DO
Y SOLO LE DAS TANTA INFIDELIDAD?


                              -----------8-5-7-8-7-5-------
                              -----------------------8-6---
                              -----5-5-5-------------------
                              -----------------------------
                              -----------------------------
                              -----------------------------


REm        LAm     SOL#m
ES UNA CONDENA TÚ AMOR

                  ------8---7---6-----------
                  ------5---4---3-----------
                  ------5---4---3-----------
                  --------------------------
                  --------------------------
                  --------------------------

SOLm        SIb              DO
SOS INDIFERENTE CON MIS SENTIMIENTOS

                              -----------8-5-7-8-7-5-------
                              -----------------------8-6---
                              -----5-5-5-------------------
                              -----------------------------
                              -----------------------------
                              -----------------------------

REm        LAm     SOL#m
ES UNA CONDENA TÚ AMOR


                  ------8---7---6-----------
                  ------5---4---3-----------
                  ------5---4---3-----------
                  --------------------------
                  --------------------------
                  --------------------------


SOLm            SIb               DO
CUANDO CALLA TU RISA A LOS CUATRO VIENTOS?


                          ------------8-8---8------------
                          -------------------------------
                          -----5-5-5------5---5--7-------
                          -------------------------------
                          -------------------------------
                          -------------------------------

Punteo 1 :

-----------------------------------------------------------5-6----
--6-5-6-5------------------------------------5-6-5---5-6-8--------
----------7---5-5---5-------5--4--3----7-6-7-------7--------------
------------7-----7---5-6-7---6--5--------------------------------
------------------------------------------------------------------
------------------------------------------------------------------


-8p6p5---x7-------------------------------------------------------
--------------8--6-5----------------------------------------------
----------------------6--7----------------------------------------
------------------------------------------------------------------
------------------------------------------------------------------
------------------------------------------------------------------


-13-12-13-12----------------------------10-9-10-12-13-15-13-12---
-------------15----13----13----12----11------------------------15
----------------14----14----13----12-----------------------------
-----------------------------------------------------------------
-----------------------------------------------------------------
-----------------------------------------------------------------


-12--5-----------------------------------------------------------
-------8-6-5-----------------------------------------------------
-------------6-7-------------------------------------------------
-----------------------------------------------------------------
-----------------------------------------------------------------
-----------------------------------------------------------------

--aca los riff son los mismos q en la primera estrofa en los mismo
finales--


REm                       LAm      SOL#m
CADA DIA QUE PASA YO SUEÑO CON TU AMOR
SOLm        SIb               DO
MARIPOSA HERMOSA VUELAS DE FLOR EN FLOR
REm                       LAm  SOL#m               2  VECES
AUNQUE YO NO QUIERA SIGO PENSANDO EN TI
SOLm           SIb          DO
ESTE FUE EL DESTINO QUISO QUE SEA ASI?

REm        LAm     SOL#m
ES UNA CONDENA TÚ AMOR
SOLm       SIb          DO
SOS INDIFERENTE CON MIS SENTIMIENTOS
REm        LAm     SOL#m
ES UNA CONDENA TÚ AMOR
SOLm            SIb                DO
CUANDO CALLA TU RISA A LOS CUATRO VIENTOS?


Punteo 2: (salsa)

---------5---------------------3-3---3-----------------5----------
---5-6-8---8-6-5----------------------------------5-8----8-6-5----
-7---------------7-5-4-4-4-4-4-----4---4-------6------------------
------------------------------------------5-7---------------------
------------------------------------------------------------------
------------------------------------------------------------------


---------8-7-6-5--------------------5-------------------3-3---3---
-------5---------8-6----------5-6-8---8-6-5-----------------------
-5-6-7-----------------5-6-7----------------7-5-4-4-4-4-----4---4-
------------------------------------------------------------------
------------------------------------------------------------------
------------------------------------------------------------------

-----------5-----------5-6-8--10----------------------------------
-------5-8------5-6-8---------------------------------------------
-----6--------7---------------------------------------------------
-5-7--------------------------------------------------------------
------------------------------------------------------------------
------------------------------------------------------------------


lalalalalala

                  ------8---7---6-----------
                  ------5---4---3-----------
                  ------5---4---3-----------
                  --------------------------
                  --------------------------
                  --------------------------

laallalalal


              -----------8-5-7-8-7-5-------
              -----------------------8-6---
              -----5-5-5-------------------
              -----------------------------
              -----------------------------
              -----------------------------

                                               x2


punteo final:


-----------------------------------------------------------5-6----
--6-5-6-5------------------------------------5-6-5---5-6-8--------
----------7---5-5---5-------5--4--3----7-6-7-------7--------------
------------7-----7---5-6-7---6--5--------------------------------
------------------------------------------------------------------
------------------------------------------------------------------


-8p6p5---x7-------------------------------------------------------
--------------8--6-5----------------------------------------------
----------------------6--7----------------------------------------
------------------------------------------------------------------
------------------------------------------------------------------
------------------------------------------------------------------


-13-12-13-12----------------------------10-9-10-12-13-15-13-12---
-------------15----13----13----12----11------------------------15
----------------14----14----13----12-----------------------------
-----------------------------------------------------------------
-----------------------------------------------------------------
-----------------------------------------------------------------


-12--5-----------------------------------------------------------
-------8-6-5-----------------------------------------------------
-------------6-7-------------------------------------------------
-----------------------------------------------------------------
-----------------------------------------------------------------
-----------------------------------------------------------------


bueno espero q les haya gustado, tarde mucho en hacerlo jajaja
este es uno de los clasicos de siete lunas... esta entero...
cualquier duda escribanme:  leocastro_11@


saludos..... LeO!
Suggest correction
Give kudos to tab author, rate the tab!
1 2 3 4 5
comments
print report bad tab
guest
Wanna post a correction for this tab? Suggest correction