Oops, an error
Loading. Please wait.

La Culpa La Tienes Tú Chords

29 views 1 this week
no commentswrite comment
1 2 3 4 5
3 more votes to show rating
add to favorites
launch autoscroll
font size
0
reset
transpose
0
reset
simplify chords
display chords
guitar tuner
×
Best way to learn
"La Culpa La Tienes Tú"
Autoscroll
slow
fast
+/-
esc
set tempo
stop
INTRO

e|-------------------------|---------------------|-------------------|
b|-------------------------|---------------------|-------------------|
g|--10-7-9-10-7-10-10-10-9-|-7-9-10-7-10-10-9----|------7-9-10-10----|
d|-------------------------|------------------10-|-8-10-----------10-|
a|-------------------------|---------------------|-------------------|
e|-------------------------|---------------------|-------------------|

e|-------|
b|-------|
g|-------|
d|-----8-|
a|-6-8---|
e|-------|


 Am               Em
 Caminando por la vida
 Am                    Em
 te busque al fin te encontre
 Am                    Em
 y he venido a preguntarte
 G                      Em
 de tu amor y el mio que fue

 Yo no entiendo los motivos

 que al dejarme tu tendrias

 pero lo que si me duele
                          E7
 es que te quiero todavia

 Am     Em
 Di porque
 Dm                     Am
 te olvidaste de aquel verano
 Dm                     Am
 te bese y nos dimos la mano
 A#                   C
 y dijiste que siempre siempre
           F   Em E7
 serias de mi

 Dime tu

 mira por lo que me has cambiado

 te engañaron te abandonaron

 y la culpa toda la culpa

 A tienes tu

Inter
e|----------------------------------------------|
b|----------------------------------------------|
g|------7-7-7-9-7------7-9-10-9---------7-9-10--|
d|-8-10-----------8-10----------10-8-10---------|
a|----------------------------------------------|
e|----------------------------------------------|


 Te dije que volveria

 y ese invierno regrese

 pero ya no me esperabas

 te habias ido y te busque

 Dime tu...


 Cualquier duda y/o comentario no duden en mandarlo a:
 vege@
Suggest correction
Give kudos to tab author, rate the tab!
1 2 3 4 5
comments
print report bad tab
guest
You may want to rate the tab now too:
select rating
Wanna post a correction for this tab? Suggest correction