Oops, an error
Loading. Please wait.

Loquito Por Tí Tab

20 views 1 this week
no commentswrite comment
1 2 3 4 5
3 more votes to show rating
add to favorites
launch autoscroll
font size
0
reset
how to read this tab
guitar tuner
Autoscroll
slow
fast
+/-
esc
set tempo
stop
El intro del acordeon en guiarra...
Am                                    G
------------------------------------|--------------------------------
-13-12-13-12------------------------|-12--12--12---------------------
-------------14----12-14----12-14-X2|---14--14--14-12------12-----12-X2
----------------14-------14---------|-----------------12-15--12-15---
------------------------------------|--------------------------------
------------------------------------|--------------------------------
Am
----------------------------------------
-13-13-13-13-12-12-12----12-14----12-14-X2
----------------------14-------14-------
----------------------------------------
----------------------------------------
----------------------------------------
G                                   Am
----------------------------------|-12-
-12--12--12-----------------------|----
---14--14--14-12------12-----12-X2|----
-----------------12-15--12-15-----|----
----------------------------------|----
----------------------------------|----
Am                         G
---12----12--12-12-------|---------------------12----
-----13------------15-12-|---15-12---15--15-15----13-
-14----14----------------|-12------12----------------
-------------------------|---------------------------
-------------------------|---------------------------
-------------------------|---------------------------

            Am      G
loquito por ti, loco loco
                          Am
loquito por ti, por ti, por ti
                    G
loquito por ti, loco loco
                          Am
loquito por ti, por ti, por ti
Am
yo que vivo enamorado de tu boca de tus ojos
                G
y de tu cuerpo bonito.
eres para mi el calor, eres para mi una diosa
                      Am
te quiero hasta el infinito
yo que vivo enamorado de tu boca de tus ojos
                G
y de tu cuerpo bonito.
eres para mi el calor, eres para mi una diosa
                      Am
te quiero hasta el infinito

loquito por ti, loco loco
loquito por ti, por ti, por ti
loquito por ti, loco loco
loquito por ti, por ti, por ti

pero no me hieras mis sentimientos
nunca tu me vayas a hacer sufrir
porque yo te quiero ciento por ciento
y eres la razon de mi existir
porque yo te quiero ciento por ciento
y eres la razon de mi existir

loquito por ti, loco loco
loquito por ti, por ti, por ti
loquito por ti, loco loco
loquito por ti, por ti, por ti
Suggest correction
Give kudos to tab author, rate the tab!
1 2 3 4 5
comments
print report bad tab
guest
You may want to rate the tab now too:
select rating
Wanna post a correction for this tab? Suggest correction