Oops, an error
Loading. Please wait.

Alguien Tab

version 1
version 1

Whole song

75 views 1 this week
no commentswrite comment
1 2 3 4 5
3 more votes to show rating
add to favorites
×
Save as Personal and add changes to this tab that will be seen only by you. Learn more ›
×
You can save this tab as Personal to edit and correct it or add notes. All changes will be seen only by you. Learn more »
save as personal
new!
launch autoscroll
font size
0
reset
how to read this tab
guitar tuner
Autoscroll
slow
fast
+/-
esc
set tempo
stop
Guitarra Prima, clásica : Rey Guerra

Esta la saqué de memoria ya que por ahora no tengo el cd, pero ojalá
les  sus comentarios y crédito por este trabajo.

---------------------------------------------------------------------
 -Afinación estandar-
---------------------------------------------------------------------

El original es durísimo, un virtuosismo de Guerra que 'da guerra'.
Por eso convertí una parte [///] a una octava más baja;algo más manejable
para amateurs que como yo aspiremos a  que sonará más fluido
ubicando los dedos según esta guía:


.           MANO IZQUIERDA                MANO DERECHA
.                        p > P
.                        i > I
.                        m > M
.                        a > A
.                        ñ A         [Bm]       [C#m]        E
.           e|-9---9---|-10---10---|-12---12---|-7--------
[2 veces]   b|---------|-----------|-----------|---5---5°-
.           g|---9---9-|----9----9-|----9----9-|-----7----
.           d|---------|-----------|-----------|----------
.           a|-0-------|-----------|-----------|----------
.           E|---------|-7---------|-9---------|-0--------
  mano izq.>>  ñ a ñ a   ñ  a  ñ a   ñ  i  ñ i   ñ i a i
  Mano DER.>>  A I A I   A  I  A I   A  I  A I   A M I M
  mano izq >>  -         i           i           -
  Mano DER >>  P         P           P           P


[ ///  Am     Em7/A       F             Cmaj13 [x33200]    Dm   ///]
|-----------|---0-------|---------------------0----------|----------
|-1---1-0---|-0---0-----|-----1-0*--------------0-----0°°|-1-3-1-0--
|---------2-|-------2-0-|-2°°-----2---------2-----2------|---------2
|---2-------|-----------|-----------3-0---3---------0----|----------
|-0---------|-----------|---------------3----------------|----------
|-----------|-3---------|-1°°----------------------------|----------
  i m i - a   - - - m -   m   i - a ñ - a ñ m - - m - -    i ñ i - m
  M P M M I   M A M I I   I   M M I P P P P I A M I P M    I I I I I
  -           A           i
  P           P           P

                      Am                Am**        [Em] **
|-4-5-4-1-0---------|-----------0-5-7-|-8---8-7----|-7---7-5---
|-------------------|-------0h1-------|---------10-|---------8-
|-4-5-4-2-1-3-1-0°°-|-----2-----------|---9--------|---7-------
|-------------------|---2-------------|------------|-5---------
|-----------3-2-0°°-|-0---------------|-0----------|-----------
|-------------------|-----------------|------------|-----------
  ñ ñ ñ i - a i -     - m a - i a i i   m a m i ñ    ñ a ñ i ñ
  M M M M M M M M     P P I A - - A A   A I A A M    A I A A M
  A A A A i m A -                       -            i
  I I I I I I I I                       P            P


 [F]        ^°°Dm                             *-*[ 12]  Ó E
|-5---5---|-1----|----------------------------|--0*-|   |12°°°|
|---------|-3----|----------------------------|-----|   |-----|
|---5---5-|-2----|----------------------------|-----|   |-----|
|-3-------|-0----|-0-2(h)3-----0h2------------|-----|   |-----|
|---------|(0)---|---------2h3-------0h2------|-----|   |-----|
|---------|------|-----------------4-----0°°°-|-(0*)|   |-----|
  ñ A ñ A   -      - i  A  i A - i A - i -               ñ
  A I A I   P      I I (I) I - I - I I - I               I
  i
  P

---------------------------------------------------------------------
- 0* En F: Aquí suelo quitar cejilla rápido para seguir con arpegio.
- Am** = ARREGLO
- [Em]** Es más fácil si se agarra fuerte el anular izq.
*-*[ 12] Armónico en traste 12, ligerísma presión cuerdas I y Iv.

---------------------------------------------------------------------
2. VERSOS (V)
---------------------------------------------------------------------


2-A INICIO DE VERSO [X2= 2 veces]

  A           [Bm]        [C#m]
|-----------|-----------|-----------|-----------
|-2---2---2-|-3---3---3-|-5---5---5-|-0---0---0-
|-----------|-----------|-----------|-----------
|---2---2---|---2---2---|-----------|---2---2---
|-0---------|-2---------|-4-7---7---|-----------
|-----------|-----------|-----------|-4---------
  a i a i a   m i m i m   m ñ m ñ m   - i - i -
  M P M P M   M P M P P   M P M P M   M P M P M
  -           i           i           A
  P           P           P           P
V1 Alguien...
v2 Mas yo sé...


2-B  TRANSICION


  Am          Em          F         Dm        E       E[033300]
|-----------|---0-------|---------|-------1-|-0-------------
|-1---1-O---|-0---0-----|-------1-|-----3---|-------0---0---
|---------2-|-------2-0-|-2---2---|---2-----|-----1---2---2-
|---2-------|-----------|---3-----|-0-------|---2-----------
|-0---------|-----------|---------|---------|---------------
|-----------|-3---------|-1-------|---------|-0-------------
  i m i - a   - - - m -   m ñ m i
  M P M M I   M A M I I   I P I M
  -           A           i
  P           P           P
V1 y esta querida tempestad...

  A
|-------------------0-------
|-----0-----2-0-------2-0---
|-------2-------2---------2-
|---------2-------2---------
|-0°°-----------------------
|---------------------------
  -   - A m ñ - A m - ñ - A
  P   M I P M M I P A M M I
  luz...

---------------------------------------------------------------------
3. RIFF ESTRIBILLOS  [simbolos explicados al final de esta tab]
---------------------------------------------------------------------

3-A INICIO [X2]
    Aquí saqué dos versiones,se pueden intercalar o elegir la más fácil.


BASICO (Arpegio+Punteo)

  Bm              C#m             D               E
|-----------2---|-----------4---|-----------5---|-0°-------0-------
|-------2h3---3-|-------4h5---5-|-------5h7---7-|--------0---0---0-
|-----4---------|-----6---------|-----7---------|------1-------2---
|---4-----------|---6-----------|---7-----------|----2-------------
|-2-------------|-4-------------|-5-------------|------------------
|---------------|---------------|---------------|-0°---------------
  i a ñ i m i m   i a ñ i m i m   i a ñ i ñ i ñ   -  m i - - - ñ -
  P P I M   A M   P P I M   A M   P P I M   A M   A  P I M A M I M
                                                  -
                                                  P
ALTERNATIVO (Arpegio+Rasgueo)

  Bm         ^x   C#m       ^x     D        ^     ^ E
|-----------2-2-|------------4--|--------2--2---|-0--------0-------
|-------2h3---3-|-------4h5--5--|------3----3---|-0------0---0---0-
|-----4-------4-|-----6------6--|----2------2---|-1----1-------2---
|---4--------(4)|---6-------(6)-|--0-------(0)--|(2)-2-------------
|-2-------------|-4-------------|---------------|(2)---------------
|---------------|---------------|---------------|------------------
ESTRIB 1
Alguien es sólo        un buen     objeee    tooo....
    Una mirada             deeesde         lej  oos....


3-B INTERMEDIO [X2]_________________________________________________


         A        ^   F#m      ^  E ^°
       |----------0-|----------2-|--0--2-0-----------2-0-----
       |-------2--2-|-------2--2-|--0------0-------0-----0---
       |-----2----2-|-----2----2-|--1--------1---1---------1-
       |---2------2-|---4------4-|--2----------2-------------
       |-0-------(0)|---------(4)|-(2)-----------------------
       |------------|-2----------|-(0)-----------------------
                                 |     ñ - - i a i - ñ - - i
                               ^x|     A A M I P I M A A M I
                    |----------9-|
                    |------10-10-|
                    |----11---11-|
                    |--11-----11-|
                    |9-----------|
                    |------------|
                    F#m original Guitarra 1>> ALTERNATIVO


>> Pasa al RIFF '3-A', y Luego a :


3-C CIERRE__________________________________________________________


      A           F#m            E
    |----------^-|----------^-|--^°-2-0-------------------------
    |-------2--^-|-------2--^-|--^------0---2-0-----------------
    |-----2----^-|-----2----^-|--^--------1-----1---1(h)2(r)1---
    |---2------^-|---4------^-|--^----------------2-----------2-
    |-0-------(^)|---------(^)|-(^)-----------------------------
    |------------|-2----------|-(^)-----------------------------
                                    ñ - - i ñ - i A i   ñ   i A
                                    A A M I M M I P I  [I] (I)P

      A           F#m            E
    |----------^-|----------^-|--^°-------------
    |-------2--^-|-------2--^-|--^--------------
    |-----2----^-|-----2----^-|--^---1--2--4°°--
    |---2------^-|---4------^-|--^--------------
    |-O-------(^)|---------(^)|-(^)-------------
.   |------------|-2----------|-(^)--O--2--4°°--
 ESTRIB1 yy todo     pasa despuées...

---------------------------------------------------------------------
4. FINAL
---------------------------------------------------------------------

  Am      [Asus4] [C]  E
|---------|-----|-O°°|----------------|>>> [x2]
|-1---1---|-3---|----|-O--------------|
|---------|-----|----|----------------|
|---2---2-|---2-|----|---2-O-2--2-O-2-|
|-O-------|-2---|-3°°|----------------|
|---------|-----|----|-4-------O------|
  i m i m   ñ m   -    - i - i - i - i
  M P M P   M P   m    m I I I P I I I
  -         i     A    A
  P         P     P    P


  * A           E     D                A           E     **A
|-5---5---5---|-4---|-2°°-|-----------|------------|--|--------|
|---2---2---2-|---2-|-----|-----------|----2-------|--|--------|
|-------------|-----|-----|-----2---2-|------2---4-|--1--2°°°°-|
|-------------|-2---|-O°°-|-2\4---3---|-2°-----4---2--O--------|
|-------------|-----|-----|-----------|------------|--|--4°°°°-| The
|-2-----------|-----|-----|-----------|------------|--|--------| END
  ñ i ñ         ñ i         a a i m i i  m i a ñ i  i  i
  M I M         M I         I   I I I I  M I I M I  M  I
  i             i                                   -  A
  P             P                                   I  P

 '2\4' Deslizar el anular izq. sobre la IV desde traste 2 al 4.
       Suena similar al 'hammer' pero mas lento.

 * A Cejilla estirando bastante el meñique para alcanzar traste 5.
     Es difícil al comienzo, pero vale la  lujo.

 **A El original me parece medio fúnebre.
     Prefiero terminar rasgando [022200] con pulgar,casi arpegiado.


CONVENCIONES_____________________________________________________

( )= OPCIONAL
 ° = Dejar timbrar nota ó acorde. (°°)= timbre mas largo
 h = 'hammer','martillar'con dedo IZQ, sin puntear con la derecha
 r = 'release', soltar.

RASGUEADO:

[^)   = hacia el piso)
 v    = hacia ARRIBA
^x,vx = 'seco' o apagado al final

**********************************************************************
PARA COMENTARIOS SOBRE ANTERIORES COLABORACIONES EN ATAME:
 El día feliz que está llegando,La gaviota

Antiguo e-mail: guitarnet@ ***DESCARTADO*** [clave perdida]
NUEVO E-MAIL: evoldesign2004@
**********************************************************************
Suggest correction
Give kudos to tab author, rate the tab!
1 2 3 4 5
comments
print report bad tab
guest
Wanna post a correction for this tab? Suggest correction