Oops, an error
Loading. Please wait.

Canción De Navidad Tab

version 2
version 2

Whole song

315 views 1 this week
no commentswrite comment
1 2 3 4 5
3 more votes to show rating
add to favorites
launch autoscroll
font size
0
reset
how to read this tab
guitar tuner
×
Best way to learn
"Canción De Navidad"
Autoscroll
slow
fast
+/-
esc
set tempo
stop
------------------------------------------------------------------
1. INTRO                                        C·G·Am·[Em/G].F·Em
                                  [Dm-Am/D].[G13/B-Fmaj13/B].G.F.C
                                         Dm7.C.[G7/B].[Dm/A o C].G
------------------------------------------------------------------

.   Em/G = 3X2000
.   Am/D = xx0210
.  G13/B = x23030
Fmaj13/B = x23230
.    Dm7 = xx0211
.   G7/B = x2303x
.   Dm/A = x0323x
Dmadd4/A = x0303x

IMPORTANTE :__________________________________________________
h = hammer,"martillar" cuerda en X traste, con dedo mano izq.
r = "release", soltar cuerda.(°,°°)= Timbrar + ó menos largo.


 C        G       Am      Em/G       F        Em
----------|--------|-------|---------|-------1-0---------------
1-----1-0-3----3-0-1-----1-0-----0---|-----1---|---0*------0---
----0-----|---0----|---2---|---0---0-2---2-----|-0*-----[0---0]
--2-------|-0------|-2-----|-2-------|-3-------|-----[2]-------
3---------2--------0-------|---------|---------|---------------
----------|--------|-------3---------1--------(0)--------------


NOTA: En Em (Mim),con el arpegiado suena un bajo°°° (cuerda 4,
t.2 que al parecer también lo toca otra guitarra adicional,
aquí habría que elegir entre arpegiar o marcar un bajo simple.


Dm-Am/D                   [G13/B-Fmaj13/B]     G
--------0h1r0-------0----|---------------------|--------------
------1-------1---1--(1)-|3------3---------3---|----------3---
----2-----------2--------|-----0---0h2-2-------|-0-0ºº------0-
-0°°°--------------------|---3-----------3---3-|--------0-----
-------------------------|-2-------------------|--------------
-------------------------|---------------------|---3°---------

 F            C            Dm7     C    G7/B   Dm/A    G
--------1-----0---------0-|--1-----|-0°°|-------|------|--------
----1-------1-|-----1-----|------1-|----|-3-----|----3-|--------
--2---2---2---|-0-----0---|----2---|----|-----0-2------0°°°-----
--------------|---2-------|0-------|----|---3---|--3---|-----0--
--------------|-----------|--------3----2-------0°°°---|-------2
1-------------0-----------|--------|----|-------|------3---1----
              A - A i - -
              P I P M I A


-----------------------------------------------------------------
2. VERSO I
-----------------------------------------------------------------

En algunas partes simplifiqué RASGUEADO. Según el respectivo
ACORDE, basta rasgar solo las cuerdas con  [^] O CON [v]

^= Rasgueado al piso  v=  ARRIBA   ^x,vx = Final "seco"

  Ejemplo:        Dm                        Dm
              ---^--v---                 ---1--1---
              ---^--v--- Equivale a ...  ---3--3---
              ---^--v---                 ---2--2---
-----------------------------------------------------------------


 C            G          Am        Em/G       F           Em
-------^(v)^-|----------|-----^(^)|----------|--------^(v)|-O-v-^
-------^(v)^-|------3-O-|--(1)^(^)|------O---|------1-^(v)|-O-v-^
-------^---^-|----O-----|-----^(^)|----O---O-|----2---^---|-O---^
-----2-^---^-|--O-------|-----^(^)|----------|--------^---|-2----
-3°°°--------|2---------|O--------|----------|------------|------
-------------|----------|---------|3°°°------|1°°°--------O------
     ELfindea ÑO..a comprAS en/buenAS  yposta LES...votos DE ren.


Dm-Am/D                [G13/B-Fmaj13/B]    G           F
-------Oh1r0-------O-|-------------------|-----------|-----------
-----1-------1---1---|-3-----3-------3---|-------3---|-------1---
---2-----------2-----|-----O---Oh2-2-----|-O-O°----O-|-----------
-O-------------------|---3-------------3-|-----O-----|-----2---2-
---------------------|-2-----------------|-----------|-----------
---------------------|-------------------|---3-------|-1°°°------
ION                        Y YO que sé...munDO.. pideviDA...porta


C      ^x Dm7  C   G7/B      Dmadd4/A   G
-------O--|----|----|-------|---------|--------------
-----1-1--|----|----|-----3-|-------3-|-------3------
---0---O--|----|----|---O---|-----O---|-----0--------
-------2--O°°°-|----|-3-----|---3-----|--(3)------O--
----------|----3°°°-2-------|-O-------|-------------2
-O--------|----|----|-------|---------|-3-------1----
LES   ...CERUNA..CION


 C            G          Am        Em/G        F       ^x  Em
-------------|----------|---------|-----------|--------1-|-------
---------1-O-|3-----3(O)|-----1---|------1----|------1-1-|-------
-------O-----|----O-----|-------2-|--O-----O-O|----2---2-|----O-O
-----2-------|--O-------|---2-----|----2------|--------3-|-------
-3°°°--------|2---------|O--------|-----------|--------3-|-------
-------------|-------(3)|---------|3----------|1°°°------|-O°°°--
     LA genteLUce...  DO   maravi  LLOsamentet ODO     paRECE..LE

Dm-Am/D                [G13/B-Fmaj13/B]    G           F
-------Oh1r0-------O-|-------------------|------3-v-^-|--------1--
-----1-------1---1---|-3-----3-----3-----|------3-v-^-|----1------
---2-----------2-----|-----O---Oh2---2(2)|------O-----|--2---2----
-O°°°----------------|---3---------------|---O--------|----------2
---------------------|-2-----------------|------------|-----------
---------------------|-------------------|-3----------|1----------
BRAr                      UNOs...   miLLO NES otrosla  CAMIsitalim

C          Dm7     C      G7/B      Dm/A      G *************
-------^-v|--1-----|-O°°|---------|---------|---------------
-----1-^-vx------1-|----|---3-----|---3-----|-0-----3-----(3)
---0---^--|----2---|----|-------O-|-------2-|-:-0-----------
----------|--------|----|-----3---|-----3---|-:---0-----0---
-3--------|O-------3----|-2-------|-O-------|-:------------0
----------|--------|----|---------|---------|-3-------1-----
PIA... no sABE queES    brINdar
----------------------------------------------------------------
3.  CORO I
----------------------------------------------------------------
       C            Em             F             G
 [IV-3 ^ ^V^]  [VI-0 ^ ^V^]  [VI-1 ^ ^V^]  [ VI-3 ^ ^V^ ]

C             Em           F ^          G
-------------|---O^x°°---|---1-(v)-^x-|-----------------
-----1^x-----|---O-------|---1-(v)-^--|-------------1rO-
-----O-------|---O-------|---2-----^--|---O---Oh2-O-----
-----2-------|---2-------|---3--------|-----O-----------
-3°°°3-------|---2-------|---3--------|-----------------
-------------|-O---------|-1----------|-3---------------
 micanCION...             CIEEEE        LO

C             Em           F            G
------^x-----|---^(v)^x--|-------^(v)^x-----------------
-1°°--^------|---^(v)^---|-----1-^(v)^|-------------1rO-
------^------|---^---^---|---2---^(v)^|---O---Oh2-O-----
------^------|---^-------|------------|-----O-----------
-3°°°(^)-----|---^-------|------------|-----------------
-------------|-O°°°------|-1----------|-3---------------
   lasest     REllas la    LU   uuuuUuu NA

C             Em           F            G
-------^(v^)-|----^(v)(^)|------^-v^-|-----------------
-1-----^(v^)-|----^(v)(^)|------^-v^-|-------------1rO-
----(O)^-(^)-|--O-^---(^)|------^--^-|---O---Oh2-O-----
--(2)--^-----|----^------|------^----|-----O-----------
-3-----------|-----------|-----------|-----------------
-------------|O----------|-1°°-------|-3---------------
     porque a TÍ telaentreEEEE          GO

C             C/B[x22010]  F            G               (C)
--------^x---|----O--v^-|------^x----|-------------------|-
-1------^----|----1--v^-|------^-----|-------------1rO-3-1-
-----O--^----|--O-0--v^-|------^-----|---O---Oh2-O---------
---2----^----|----2-----|------^-----|-----O---------------
-3-----(^)---|----2-----|------^-----|---------------------
-------------|O---------|-1°°°-------|-3-------------------
     que no   TIEnes nin  GU uuuuu     NA

C             Em           F            G                (C)
--------^(v^)|----^-v-^(v)----^-v-^(v)|-------------------|-
--------^(v^)|----^-v-^(v)----^-v-^(v)|-------------1rO-3-1-
-----O--^-(^)|----^---^--|----^---^---|---O---Oh2-O---------
---2----^----|----^---^--|----^---^---|-----O---------------
--------^----|-----------|------------|---------------------
-------------|-O---------|-1°°°-------|-3-------------------
        micanCION noestan SO  ooooo     LO

C             Em           F            G                (C)
--------^(v^)|----^------|----^-v-^-v-|-------------------|-
--------^(v^)|----^-v-^x-|----^-v-^-vx|-------------1rO-3-1-
-----O--^-(^)|----^-v-^--|----^---^---|---O---Oh2-O---------
---2----^----|----^---^--|----^-------|-----O---------------
--------^----|-----------|------------|---------------------
-------------|-O---------|-1°°°-------|-3-------------------
     dequien  PUEda escuchaA aaaaaaar   LA

C             Em           F            G               (C)
--------^(v^)|-----^-(v^)|------^----|-------------------|-
--------^(v^)|-----^-(v^)|------^----|-------------1rO-3-1-
-----O--^-(^)|---O-^--(^)|------^----|---O---Oh2-O---------
---2----^----|-----^-----|------^----|-----O---------------
--------^----|-----------|------^----|---------------------
-------------|-O---------|-1°°°------|-3-------------------
     porque a VE ces el   SO ooooorr    DO

C             Em           F            G                (C)
--------^-v--|-----^-v-^-|------^-v^-|---------------------|
--------^-vx-|-----^-v-^-|------^-v^-|-------------1rO-(3)r1
--O-----^----|---2-^---^-|------^--^-|---O---Oh2-O----------
----2---^----|-----^-----|------^----|-----O----------------
--------^----|-----------|------^----|-----------------(3)--
-------------|-O---------|-1°°°------|-3--------------------
        lleva MÁS   para aMA   aaaaarr  LAaaaaa


---------------------------------------------------------------
4. INTERLUDIO
---------------------------------------------------------------


Aquí reproduzco mas que todo el punteo de la Guitarra  la
grabación Silvio encimó uno q otro acorde para q sonara como 2.

C              Em                F           G              (C)
-----3rO----|-----------------|---^x-^-v--|-------------------|
---------1--|--------h1rO-----|---^--^-vx-|-------------1r0-3-1
---O-------O|--O---O------2rO-|---^--^----|---O---0h2-O--------
-2----------|----2------------|-3-^--^----|-----O--------------
------------|-----------------|---^-------|--------------------
------------|-O---------------|-1---------|-3------------------


C              Em                F**         G               (C)
-------------|-----------------|------------|------------------|
-------------|-----------------|------------|------------1r0-3-1
--IDÉNTICO---|----IDÉNTICO-----|------------|--O---Oh2-O--------
-------------|-----------------|-2h3r2-O----|----O--------------
-------------|-----------------|---------3-<2>*-----------------
-------------|-----------------|-----------<3>*-----------------
                               |            |
                               |Guitarra 2: |
                               |[VI-1 ^°°^V^]


C              Em                F           G             (C)
------------|-----------------|-------^v-|-------------------|
------------|-----------------|-------^v-|-------------1r0-3-1
-IDÉNTICO---|----IDÉNTICO-----|--2----^--|---O---Oh2-O--------
------------|-----------------|----3*-^--|-----O--------------
------------|-----------------|----------|--------------------
------------|-----------------|-1--------|-O------------------
.                              Aquí fusioné
.                              guit 1 + guit.2
.                          (en 3*= debajo va acorde de guit.2)

C              Em                F           G
-------------|-----------------|-------------|-------------
-------------|-----------------|-------------|--------h1-0-
--IDÉNTICO---|----IDÉNTICO-----|-------------|-O---O-------
-------------|-----------------|-2h3r2-O-----|---O---------
-------------|-----------------|---------3--<2>*-----------
-------------|-----------------|------------<3>*-----------
                                     >>CONECTA CON VERSO II

IMPORTANTE: Iniciando "G" suenan 2 bajos al tiempo pero NO
forman acorde como tal : El <2>* que sería el de la Guit. 1
y el <3>* de la G.2, basta elegir uno de los anteriores.


--------------------------------------------------------------
5.  VERSO II                                C·G·Am·[Em/G].F·Em
                    [Dm-Am/D].[Em7/F].G.F.C > Dm7.C.[G7/B].C.G
--------------------------------------------------------------

 C         G          Am        Em/G        F      Em
----^°°°|-------^x|--------^-|----^--^v-|-^°°^v--|-------^x
-1--^---|-------^-|--1---1-^-|----^--^v-|-^--^v--|-------^
----^---|----0--^-|----2-^-^-|--0-^--^v-|-^--^v--|-----0-^
----^---|-------^-|----- --^-|----^-----|-^------|---2---^
-3--^---|-2-------|0---------|----------|--------|--------
--------|---------|----------|-0--------|1-------|-0------


Dm-Am/D               Em7/F[xx3030]         G     F
------0h1-0°°-------1|-----0--------------|^-v^|---------1----
----1---------1---1--|---3-----3----------|^-v^|---1---1------
--2---------2---2----|-0-----2°°-2-0-0-0-0|^-v^|-2---2--------
0--------------------3--------------------|^---3--------------
---------------------|--------------------|----|-----------0h2
---------------------|--------------------|----|--------------

 C     Dm7    C      G7/B      C         G //
-^--^v-|--1-----|-O°°|---------|---------|----------------
-^--^v-|------1-|----|---3-----|---1-----|--0-------------
-^--^v-|----2---|----|-------O-|-------0-|------0---0-----
-^-----|--------|----|-----3---|-----2---|----0-------0---
-------|O-------3----|-2-------|-3-------|--------------2*
-------|--------|----|---------|---------|-3------1-------
                                         invertir salud ...

 C        G          Am        Em/G      F         Em      ^
------^-|-----------|--^-v-^x|---^--^v-|---^--^v-|---------0
----1-^-|---3-3-----|--^-v-^-|---^--^v-|---^--^v-|-----0h1-0
--0---^-|---0-------|--^-v-^-|---^--^v-|---^--^v-|---0-----0
------^-|-3---------|--------|---^-----|---^-----|----------
*3------2-----------0°°------|---------|---------|----------
--------|-------0h3-|--------|-3-------|-1-------|-0°°------
p.e.c.a. no escucha ...

Dm-Am/D                 Em7/F[xx3030]          G       F  (C)
------0h1-0-------0-----|-------0------------|^-^v-|^-^v----:
----1-------1---1-----0-|-----3--------------|^-^v-|^-^v----:
--2-----------2-----2---|---0-----2°°-2-2-0-0|^-^v-|^-^v----:
0-----------------------0-3---------3--------|^----|^-------:
------------------------|--------------------|-----|----0h2h3
------------------------|--------------------|-----|---------


 C     Dm7    C      G7/B      C          G //         (C)
^°°^v-|--1-----|-O°°|---------|---------|----------------:
^--^v-|------1-|----|---3-----|---1-----|-0--------------:
^--^v-|----2---|----|-------O-|-------0-|---0-----0ººº---:
^-----|--------|----|-----3---|-----2---|-----0------0---:
------|O-------3----|-2-------|-3-------|--------------2-3°°
------|--------|----|---------|---------|-3------1°°-----:
.                                       nadie le canto.. :
.                    Con este bajo reinicia coro I (en Do:


----------------------------------------------------------
6.  CORO II
----------------------------------------------------------
* Coro I y luego se repite aumentado 1 tono y con 3 guits

                D          F#m          G       A= x03330
Guitarra 1 [VI-0 ^V^]  [VI-2 ^V^]  [VI-3 ^V^] [  V-0 ^V^]

Guitarra 2 [  ^^ ^V ]  [ ^^ ^V^ ]  [  ^^ ^V ] [ ^^ ^V^(v)]
                                                 A= 577455

Guitarra 3 : solo puntea en A :
|-------------*<0>*----------
|---0---3h2-3°°----(3-3-3°°)-
|-2---2----------------------
|----------------------------
|----------------------------
|----------------------------
 *<0> solo aparece en las últimas 5 líneas del coro

-----------------------------------------------------------
7.  FINAL                                         X 6 veces
-----------------------------------------------------------

Es con 3 guitarras: Una con Bajos+acordes,otra con acordes
largos y encima la del magnífico y memorable solo:

Cej. fuerte en cuerdas de I a IV, alargando el meñique izq
Recomiendo digitar como indico abajo, para un mejor sonido.


OPCION 1:

D          F#m            G             A= x03330
-4-2------------------------------------------------------
------3----------2h3r2-------------------------3r2-5h3---3
-------2---0---0-------4-2-----------2---2h4-2---------2--
0ºº-------4---4-------------5-4-2-0-----2------------------
------------------------------------4----------------------
-----------------------------------------------------------
P A M I P P I P I M - - I P         P I P I I I M - M M P I
- ñ i m i a i a i i m i ñ i         a i i i ñ i m i ñ m i m
  ^
  :

 = Cejilla momentánea, únicamente en las cuerdas en que
     aparezca ente símbolo.


OPCION 2, un poco más fácil

 D          F#m            G            A= x03330
--4-2------------------------------------------------------
-------3----------2h3r2------------------------3r2-3°°°--3
--------2---0---0-------4-2-0--------2---2h4-2---------2--
0°°--------4---4-------------!-4-2-0----2---------*<0>°°°--
-----------------------------!-------4----------------------
-----------------------------!------------------------------
                              !                       >>FIN
           suelta cejilla aquí^  ^

*<0>:opcional, quitando rápido la cejilla de la cuerda IV y
     dejándola solo sobre las tres primeras cuerdas

----------------------------------------------------------
CONVENCIONES PARA DIGITACION :

 MANO IZQUIERDA          MANO DERECHA    Ejemplo: --2---
.          p <<  pulgar  >> P                     ------
.          i <<  indice  >> I                     ------
.          m <<  medio   >> M                     ------
.          a <<  anular  >> A                       i
.          ñ <<  meñique                            P
.                                     la nota se toca con
                                       el indice IZQ y el
.                                          Pulgar DERECHO


---------------------------------------------------------
CANCION DE NAVIDAD
---------------------------------------------------------


El fin de año huele a compras,
enhorabuenas y postales
con votos de renovación;
y yo que sé del otro mundo
que pide vida en los portales,
me doy a hacer una canción.

La gente luce estar de acuerdo,
maravillosamente todo
parece afín al celebrar.
Unos festejan sus millones,
otros la camisita limpia
y hay quien no sabe qué es brindar.


Mi canción no es del cielo,
las estrellas, la luna,
porque a ti te la entrego,
que no tienes ninguna.

Mi canción no es tan sólo
de quien pueda escucharla,
porque a veces el sordo
lleva más para amarla.


A)Tener no es signo de malvado
y no tener tampoco es prueba
de que acompañe la virtud;
pero el que nace bien parado,
en procurarse lo que anhela
no tiene que invertir salud.

Por eso canto a quien no escucha,
a quien no dejan escucharme,
a quien ya nunca me escuchó:
al que su cotidiana lucha
me da razones para amarle:
a aquel que nadie le cantó.

Mi canción no es del cielo ...


Mi canción no es tan sólo
de quien pueda escucharla,
porque a veces el sordo
lleva más para amarla.
Suggest correction
Give kudos to tab author, rate the tab!
1 2 3 4 5
comments
print report bad tab
guest
You may want to rate the tab now too:
select rating
Wanna post a correction for this tab? Suggest correction