Oops, an error
Loading. Please wait.

Canción Del Elegido Tab

version 2
version 2

Whole song

Interactive

388 views 1 this week
no commentswrite comment
1 2 3 4 5
1 last vote to show rating
add to favorites
launch autoscroll
font size
0
reset
how to read this tab
guitar tuner
×
Best way to learn
"Canción Del Elegido"
Autoscroll
slow
fast
+/-
esc
set tempo
stop
Al Final De Este Viaje 1968 - 1970

Afinar medio tono abajo  [D#] (G#) [C#] (F#) [A#] (D#)
                          6    5    4    3    2    1
Afinacion estandar       (E)  (A)  (D)  (G)  (B)  (E)

sabemos que esta dedicada para Ernesto (El Che) Guevara
de hecho fue escrita para el
pero yo dedico mi trabajo a mi madre
que esta en el cielo, a mi padre que
es mi motor mi ejemplo de vida y a tan bien para
una flor que va al colegio...
esta es que esta en el guitar pro 5
pero como allí viene con los bajos separados aquí los junte
y pues estaré aportando canciones así que están en la red
pero no tabuladas en  es mi primer aporte
así que si algo esta mal corrijanlo o díganme

VERSO 1
                   x4
e|---------0-------||---------0----------------0--------------0--------2-|
B|-------3---3-2---||-------3---3-2----------3---3-2--------0--------3---|
G|-----2---------2-||-----2---------2------2---------2-------------2-----|
D|---2---2-----2---||---2---2-----2------2---2------------4------0-------|
A|-0---------------||-0----------------0-----------0----2----------------|
E|-----------------||----------------------------------------------------|

e|-------0-------4--0------------2------0--------4--0-----4------4-----|
B|----0-----4/5----------3-----3---3--------4/5----------------5---5---|
G|---------------------------2-------2-----------------------4-------4-|
D|--------------------x--0--------------2--------------x---------------|
A|-2------------------x--------------------------------x---------------|
E|--------------------x--------------------------------x-----2---------|

e|--------0-----------------------------2---------------|
B|------2---2------------2------------3---3-------------|
G|----2-------2--------3---3--------2-------2-----------|
D|-------------------4-------4--0--------------2--------|
A|-0--------0-------------------------------------------|
E|---------------2---------------------------------2--4-|

e|--------------------------------------2---------------|
B|--------2--------------2------------3---3-------------|
G|------2---2----------3---3--------2-------2-----------|
D|----2-------2------4-------4--0--------------2--------|
A|-0--------0-------------------------------------------|
E|---------------2---------------------------------2--4-|

e|--------------------2------0-4--------------------2-----0--4-|
B|---------2--------3------0-------------3--------3-----0------|
G|-------2---2----2--------------------2---2----2--------------|
D|-----2--------0-------2------------2--------0-------2--------|
A|-0-----------------------------------------------------------|
E|----------------------0---------2-------------------0--------|

e|-------------2----------2------------0-----------------0-------|
B|-----0---3-0----0---0-3---3-0------3----3-2----------3---3-2---|
G|---------------------------------2----------2------2---------2-|
D|-------------------------------------------------2---2-----2---|
A|-2--------------2---------2----0-----2----2----0---------------|
E|---------------------------------------------------------------|

VERSO 2
                   x4
e|---------0-------||---------0--------------0-------2--------0-------4--0----|
B|-------3---3-2---||-------3---3-2--------0-------3-------0-----4/5----------|
G|-----2---------2-||-----2---------2------------2----------------------------|
D|---2---2-----2---||---2---2------------4-----0----------------------------x-|
A|-0---------------||-0-----------0----2----------------2-------------------x-|
E|-----------------||-------------------------------------------------------x-|

e|---------2------0--------4--0-----0-------4-------------0-----|
B|-3-----3---3--------4/5-----------------5---5---------2---2---|
G|-----2-------2------------------------4-------4-----2-------2-|
D|-0--------------2--------------x------------------------------|
A|-------------------------------x-----------------0--------0---|
E|-------------------------------x--------2---4-----------------|

e|----------------------2---------------------|
B|--------2-----------3---3----------0-3-0----|
G|------3---3-------2-------2-----------------|
D|----4-------4--0-----------------4-----0--4-|
A|------------------------4----2--------------|
E|-2------------------------------------------|

e|--------4------4--------------0----------------2----------|
B|------5---5-----------------2---------2------3--------0-3-|
G|----4-------4-------------2---------3------2--------------|
D|-2--------------------------------4------0---------4------|
A|------------------------0------------------------2--------|
E|------------------2--4----------2-------------------------|

e|-------0-4-0----------2-----0-4------------------2--------|
B|-----0-------0------3-----0-------------3-----------3-----|
G|------------------2-------------------2---2-----------2---|
D|-2--------------0-------2-----------2--------0----------2-|
A|----------------------------------------------------------|
E|------------------------0--------2--------------------2---|

e|------0-4-^-4--------------2----------2-----------0---------|
B|----0-----|-5------0---3-0----0---0-3---3-0-----------3-2---|
G|-2--------|-4-----------------------------------2---------2-|
D|----------|-2-----------------------------------------------|
A|-0-------------2--------------2---------2----0----2-----2---|
E|------------------------------------------------------------|

VERSO 3
                   x4
e|---------0-------||---------0--------------0-------2--------0-------4--0----|
B|-------3---3-2---||-------3---3-2--------0-------3-------0-----4/5----------|
G|-----2---------2-||-----2---------2------------2----------------------------|
D|---2---2-----2---||---2---2------------4-----0--------2-------------------x-|
A|-0---------------||-0-----------0----2------------------------------------x-|
E|-----------------||-------------------------------------------------------x-|

e|---------2------0--------4--0-----4-------4-------------0-----|
B|-3-----3---3--------4/5-----------------5---5---------2---2---|
G|-----2-------2------------------------4-------4-----2-------2-|
D|-0-----------------------------x------------------------------|
A|----------------2--------------x-----------------0--------0---|
E|-------------------------------x--------2---------------------|

e|----------------------2-----------------------------|
B|--------4-----------3---3---------------------2-----|
G|------3---3-------2-------2-----------------2---2---|
D|----4-------4----0-------------2----------2-------2-|
A|----------------------------------------0-------0---|
E|-2--------------------------------2--4--------------|

e|----------------------2--------------------------|
B|--------2-----------3---3--------------------2---|
G|------3---3-------2-------2----------------2---2-|
D|----4-------4--0-------------2-----------2-------|
A|--------------------------------------0----------|
E|-2------------------------------2--4-------------|
                                                ^
e|-------2-----0-4-----------------------2------|2-|
B|-----3-----0--------------2----------3---3----|3-|
G|---2--------------------3---3------2-------2--|4-|
D|-0-------2------------4--------0--------------|4-|
A|----------------------------------------------|2-|
E|---------0--------2----------------------2-------|

e|-------------2----------2------------0---------|
B|-----0---3-0----0---0-3---3-0------3-----3-2---|
G|---------------------------------2-----------2-|
D|-------------------------------------2-----2---|
A|-2--------------2---------2----0---------------|
E|-----------------------------------------------|

VERSO 4
                  x4
e|---------0----------------0---------------0-------2---------0-------4--0----|
B|-------3---3-2----------3---3-2---------0-------3--------0-----4/5----------|
G|-----2---------2------2---------2-------------2-----------------------------|
D|---2---2-----2------2---2------------4------0--------2--------------------x-|
A|-0----------------0-----------0----2--------------------------------------x-|
E|--------------------------------------------------------------------------x-|

e|---------2------0--------4--0-----0------4-------------0-----|
B|-3-----3---3--------4/5----------------5---5---------2---2---|
G|-----2-------2-----------------------4-------4-----2-------2-|
D|-0--------------2--------------x-----------------------------|
A|-------------------------------x----------------0--------0---|
E|-------------------------------x-----------------------------|

e|----------------------2-----------------------------4-----|
B|--------4-----------3---3------------3------------5---5---|
G|------3---3-------2-------2--------4---4--------4-------4-|
D|----4-------4--0-----------------4-----0-4--2-------------|
A|------------------------4----2----------------------------|
E|-2--------------------------------------------------------|

e|-4--------------0----------------2--------------------4-----|
B|--------------2---------2------3---------0-3--------5---5---|
G|------------2---------3------2--------------------4-------4-|
D|--------------------4------0----------4-------2-------------|
A|----------0-------------------------2-----------------------|
E|----2--4----------2-----------------------------------------|

e|-------2-------0-4---------------------2------0-4--------------|
B|-----3-------0--------------2--------3------0--------------2---|
G|---2----------------------2---2----2---------------------3---3-|
D|-0--------2-------------2--------0--------2------------4-------|
A|--------------------0------------------------------------------|
E|----------0-------------------------------0--------2-----------|
                                                                        ^
e|-------------2----------2-----------0------------------0-----------0--|0-|
B|-----0---3-0----0---0-3---3-0-----------3-2----------3---3-2----------|2-|
G|----------------------------------2---------2------2---------2--------|2-|
D|------------------------------------2-----2------2---2-----2-------2--|2-|
A|-2--------------2---------2----0---------------0----------------0-----|0-|
E|-------------------------------------------------------------------------|
Suggest correction
Give kudos to tab author, rate the tab!
1 2 3 4 5
comments
print report bad tab
guest
You may want to rate the tab now too:
select rating
Wanna post a correction for this tab? Suggest correction