Oops, an error
Loading. Please wait.

Con Diez Años De Menos Tab

127 views 1 this week
no commentswrite comment
1 2 3 4 5
3 more votes to show rating
add to favorites
launch autoscroll
font size
0
reset
how to read this tab
guitar tuner
Autoscroll
slow
fast
+/-
esc
set tempo
stop
NTRO:

       SOL        RE                     FA                SOL7
|--------0-0---0-1-3h2--2h0----------------------------1-1h0-0--------|
|------------1---------------3------------1-1-1-1-1--1---------0--1h0-|
|-----0-------------------------2---------2-2-2-2-2-------------------|
|------------------0--------------0-----------------------------------|
|--3--------------------------------0-----------3--------2------------|
|-------------------------------------1---------------------------3---|

                             LAm                FA             RE/FA#      SOL
|------------------------0-0---------------------------------1---------------------|
|------------0---0---0--------3-3-1--1h0--------1-1-1-1-1--1----3--1-1h0-0----0----|
|--0-------0---0---0---------------------2------2-2-2-2-2-------------------0---0--|
|----0-------------------------------------2---------------------------------------|
|--------2-----------------0---------0---------------------------------------------|
|---------------------------------------------1-------1---------2------------------|


ESTROFAS 1°, 2° Y 4:

    Sifuera10añosmásjovenquefeliz        yquedescamisadoeltonodedecir         cada
   Los añossonpuesmimordazaohmujer       sé demasiadomeconviertoenmisaber
       DO               RE                   FA           MIm          FA
|--0----0----0----0--2----2----2--------------1-1-------------------------1-----|
|--1----1----1----1--3----3----3------------------1----------0--------1---------|
|----0----0----0-------0----0----0----------2--------------0---0----2---2-------|
|--------------------0--------------------3-------------------------------------|
|--3--------------------------------0-------------------2-----------------------|
|-------------------------------------0-1-------------------------1-------------|

palabradesatandountemporal   yenloqueciendolaetiquetaocacional
quisierahaberteconocidoañosatrás
   SOL      MIm      LAm
|----------------0-0--------------1---------2--------3--------------|
|-O---0--------0-----1----------1---------3--------0----------------|
|---O---0----0---------2------2---------2--------0------------------|
|-------------------------------------------------------------------|
|----------2----------------------------------------------0-2--3----|
|-3-----------------------0-1--------2---------3--------3-----------|

 parasacarchispasdelaguaquemedas    paraempuñarlaalevosíayelcandor ysaberolvidar  mejor.
      FA        RE/FA#     SId       MI        LAm       FA      SId        MI4
|-------1---------2-----------------0-----------0----------1---------------------------|
|-----1---------3----------3------0-----------1----------1-----------3---------0-------|
|---2---------2----------2------1-----------2----------2-----------2---------2---2-1-1-|
|----------------------3-----------------------------------------3---------2-----------|
|--------------------2--------2-----------0--------0-----------2---------2-------------|
|-1---------2----------------------------------------1---------------------------------|

INTERLUDIO:
    LA           SOL      RE/FA#      SOL     RE/FA#
|--------0-------------------2-------------------2-------|
|--2---2---2----0---0------3---3----0---0------3---3-----|
|----2-------2----0----2-2-------2----0----2-2-------2---|
|--------------------------------------------------------|
|--0-----------------------------------------------------|
|---------------3------2------------3------2-------------|


ESTROFAS 3°,5°,6 Y 7:

Estamujermeproponequesalteymeestrelle contraunmurodepiedraquealzaenelcielo
contraunmurodepiedraquealzaenelcielo  ycomocombustiblemellenadeanhelos
ycomocombustibleme lenadeanhelos      de besos sin promesas y sentencias
     LA          SOL       RE/FA#     LA       SOL       RE/FA#
|--------0-------------------2-------------2---------------2-------|
|--2---2---2----0---0------3---3-----2---2----0---0------3---3-----|
|----2-------2----0----2-2-------2-----2--------0----2-2-------2---|
|------------------------------------------------------------------|
|--0---------------------------------0-----------------------------|
|---------------3------2----------------------3------2-------------|


sin leyes
|-----3-2---2-------------------------------------------------|
|---------3------3---2----------------------------------------|
|--------------2----------------------------------------------|
|-------------------------------------------------------------|
|--------------------0----------------------------------------|
|--2----------------------------------------------------------|


  DO                        RE
A)Si fuera diez años más joven que feliz
 FA                (SOL4)      SOL
y que descamisado el tono de decir
 MIm             LAm
cada palabra desatando un temporal
FA       (RE/FA#)           SOL(VI-3 V-0·2)
y enloqueciendo la etiqueta ocasional

A)Los años son pues mi mordaza, oh mujer
sé demasiado, me convierto en mi saber
quisiera haberte conocido años atrás
FA          (RE/FA#)   SId7        MI
para sacar chispas del agua que me das
LAm              FA             SId7
para empuñar la alevosía y el candor
(MI4)       MI    LA(SOL·RE/FA# VI-2·3·3 LA·SOL)
y saber olvidar mejor...

   LA                        SOL      RE/FA#(VI-2·3·3)
B)Esta mujer me propone que salte y me estrelle
 LA                         SOL       RE/FA#(VI-2·3·3)
contra un muro de piedra que alza en el cielo
 LA                    SOL       RE/FA#(VI-2·3·3)
y como combustible me llena de anhelos
 LA                      SOL        RE/FA#(VI-2·3·3)
de besos sin promesas y sentencias sin leyes.

A)Esta mujer me propone un pacto que selle
la tierra con el viento, la luz con la sombra
invoca los misterios del tiempo y me nombra
esta mujer propone que salte y me estrelle.

  SOL LA          SOL  RE     SOL  LA·SOL·RE
Solo para verle, solo para amarle
SOL  LA          SOL  RE     SOL   LA·SOL·RE
solo para serle, solo y no olvidarle.

B)Con diez años de menos no habría esperado
por tus proposiciones yo hubiera corrido
como una fiera al lecho en que nos conocimos
impúdico y sangriento, divino y alado
con diez años de menos habría blasfemado
con savia de su cuerpo quemaría los templos
para que los cobardes tomaran ejemplo
con diez años de menos hubiera matado.

Solo para verle, solo para amarle
solo para serle, solo y no olvidar

dzib*
Suggest correction
Give kudos to tab author, rate the tab!
1 2 3 4 5
comments
print report bad tab
guest
You may want to rate the tab now too:
select rating
Wanna post a correction for this tab? Suggest correction