Oops, an error
Loading. Please wait.
70 views 1 this week
no commentswrite comment
1 2 3 4 5
3 more votes to show rating
add to favorites
launch autoscroll
font size
0
reset
how to read this tab
guitar tuner
×
Best way to learn
"Crisis"
Autoscroll
slow
fast
+/-
esc
set tempo
stop
CRISIS
SILVIO RODRIGUEZ
DISCO SILVIO


  D                                               G
E|-----|-------------|-------------|-------------|--------------|
B|-----|-----0-------|-----0---2-3-|-----0---2-3-|-2-3-5-3-2-3--|
G|-1-2-|-1-2---2-1-2-|-1-2---2-----|-1-2---2-----|--------------|
D|-----|-------------|-------------|-------------|--------------|
A|-----|-------------|-------------|-------------|--------------|
E|-----|-------------|-------------|-------------|--------------|


               D                 A7                  D
E|-----------------|-------------------|---------------|
B|-2-3-5-3-2-3-----|-------------------|---------------|
G|-------------1-2-|-1-2-4-2-1-2-3-3-2-|-0-3-2-0-------|
D|-----------------|-------------------|---------2---0-|
A|-----------------|-------------------|-----------4---|
E|-----------------|-------------------|---------------|


   G                   D       G                   D
E|-----|---------------------|-----|---------2-3-4-5-5-|
B|-2-3-|--2-3-5-3-2--0---0---|-2-3-|-2-3-5-3-----------|
G|-----|---------------1---2-|-----|-------------------|
D|-----|---------------------|-----|-------------------|
A|-----|---------------------|-----|-------------------|
E|-----|---------------------|-----|-------------------|


              A7                       D
E|-------------------|---------0-2-3-4-5-5-|
B|-----0-------------|-----2-3-------------|
G|-1-2---2-1-2-3-3-2-|-2-3-----------------|
D|-------------------|---------------------|
A|-------------------|---------------------|
E|-------------------|---------------------|

                G               D            A D
E|-------------|---------------|-----|-----------|
B|-----0-------|--2-3-5-3-2-3--|-----|-----------|
G|-1-2---2-1-2-|---------------|-1-2-|-1-2-4-----|
D|-------------|---------------|-----|-----------|
A|-------------|---------------|-----|-----------|
E|-------------|---------------|-----|-----------|
Suggest correction
Give kudos to tab author, rate the tab!
1 2 3 4 5
comments
print report bad tab
guest
You may want to rate the tab now too:
select rating
Wanna post a correction for this tab? Suggest correction