Oops, an error
Loading. Please wait.

Debo Partirme En Dos Tab

506 views 3 this week
no commentswrite comment
1 2 3 4 5
2 more votes to show rating
add to favorites
launch autoscroll
font size
0
reset
how to read this tab
guitar tuner
Autoscroll
slow
fast
+/-
esc
set tempo
stop
Help us to improve Ultimate-Guitar.com Take our survey!
×
ACLARACIÓN: AFINEN LA VIOLA UN TONO MAS BAJO

INTRO:

|-----------|-----------1-|-0-------0h3p0-----0-----|
|-1---1p0---|-------1p3---|-----0h3-------0h3---0---|
|---2-----2-|-----3-------|---1-------------------1-|
|-----------|---3---------|-------------------------|
|-0---------|-1-----------|-------------------------|
|-----------|-------------|-0-----------------------|

|-----------|-----------1---|-0-------0---|---3p0-------|
|---1-1p0---|-3-----1h3---3-|-----0h3---0-|-------0h3---|
|---------2-|-----3---------|---1---------|-1---------1-|
|---2-------|---3-----------|-------------|-------------|
|-0---------|-1-------------|-------------|-------------|
|-----------|---------------|-0-----------|-------------|

1° ESTROFA:

      No se crean que es majadería.
|---|---------|---------0h3p3-|-----0-----|
|-1-|-------3-|-----0h3-------|-0h3---0---|
|-2-|-----3---|---1-----------|---------1-|
|-2-|---3-----|---------------|-----------|
|-0-|-1-------|---------------|-----------|
|---|---------|-0-------------|-----------|

           Que nadie se levante aunque me ría.
|---------|---------|---------0h3p0-|-----0-----|
|-1-----1-|-------3-|-----0h3-------|-0h3---0---|
|-----2---|-----3---|---1-----------|---------1-|
|---2-----|---3-----|---------------|-----------|
|-0-------|-1-------|---------------|-----------|
|---------|---------|-0-------------|-----------|

Hace rato que vengo lidiando con gente
         |---|---|----3-|-3-|
         |-1-|-1-|-0----|-0-|
         |-2-|-0-|-0----|-0-|
         |-2-|-2-|-0----|---|
         |-0-|-3-|------|---|
         |---|---|-3----|---|

que dice que yo canto cosas indecentes.
         |---|---|----3^--|-|3---|3--^3-|
         |-1-|-1-|-0--0|--|-|0---|0--|0-|
         |-2-|-0-|-0--0|--|-|0---|0--|0-|
         |-2-|-2-|-0--0|--|-v----v---|--|
         |-0-|-3-|--------|-------------|
         |---|---|-3------|-------------|

Te quiero, mi amor,
|-------------|-------------|
|-------1-----|-------1-----|
|---0---------|-----2-----0-|
|-----2-------|---2---------|
|-3-------3p2-|-0-----------|
|-------------|---------3---|

no me dejes solo.
|---------------|-------------|
|---------1-----|-------0-----|
|---2---2-----2-|-----0-----0-|
|-----3---------|---0---------|
|---------------|-------------|
|-1---------1---|-3-------3---|

No puedo estar sin ti
|-------------|-------------|
|-------1---0-|-------1-----|
|-----0-------|-----2-----0-|
|---2---------|---2---------|
|-3-------2---|-0-----------|
|-------------|---------3---|

mira que yo lloro.
|-----------------|-------3-1---|
|-------1-------3-|-----0-----0-|
|-----2-------2---|---0---------|
|---3-------0-----|-------------|
|-----------------|-------------|
|-1-------2-------|-3-----------|

¿No ven?, ya soy decente: me fue fácil
|-0-|-----1-|---------0h3p0-|-----0-----|
|-1-|-----3-|-----0h3-------|-0h3---0---|
|-2-|-----3-|---1-----------|---------1-|
|-2-|---3---|---------------|-----------|
|-0-|-1-----|---------------|-----------|
|---|-------|-0-------------|-----------|

Que el público se agrupe y que me aclame.
|-0-|-----1-|---------0h3p0-|-----0-----|
|-1-|-----3-|-----0h3-------|-0h3---0---|
|-2-|-----3-|---1-----------|---------1-|
|-2-|---3---|---------------|-----------|
|-0-|-1-----|---------------|-----------|
|---|-------|-0-------------|-----------|

Que se acerquen los niños, los amantes del ritmo.
|-0---0-|-0-|--^3--^3--|3-|--^3--|3--^3--^3--^3-|
|-1---0-|-1-|--|3--|3--|3-|--|3--|3--|3--|3--|3-|
|-2---0-|-0-|--|4--|4--v4-|--|4--|4--|4--|4--|4-|
|-2-----|-2-|--|5--|5-----|--|5--v5--|5--|5--|5-|
|-0---2-|-3-|--|5--|5-----|----------|5--|5-----|
|-------|---|--|3--|3-----|----------|3--|3-----|

Que se queden sentados los intelectuales.
|-0---0-|-0--0-|--^3--^3--|3-|--^3--|3--^3--^3--^2-|
|-1---1-|-1--1-|--|3--|3--|3-|--|3--|3--|3--|3--|2-|
|-2---2-|-0--0-|--|4--|4--v4-|--|4--|4--|4--|4--|3-|
|-2---2-|-2--2-|--|5--|5-----|--|5--v5--|5--|5--|4-|
|-0---0-|-3--3-|--|5--|5-----|----------|5--|5--|4-|
|-------|------|--|3--|3-----|----------|3--|3--|2-|

ACA VIENE EL ESTRIBILLO QUE SON LOS ACORDES NADA MAS,

EL RITMO ES MASO MENOS ASI:

ARRIBA, ARRIBA, ABAJO, ARRIBA, ABAJO, ARRIBA, ARRIBA, ABAJO, ARRIBA

        F
Debo partirme en dos.
       E
Debo partirme en dos.
                  Am
Unos dicen que aquí,
                  F
otros dicen que allá
                 Am
y sólo quiero decir,
                F
sólo quiero cantar
                   Dm
y no importa la suerte
              C
que pueda correr
        G
una canción.
E                Am
Unos dicen que aquí,
                 F
otros dicen que allá
                Am
y sólo quiero decir,
                F
sólo quiero cantar,
                   Dm
y no importa que luego
        C            G     E
me suspendan la función.

INTERLUDIO:

|-0-----------|-0-----------|
|-1-----------|-0-----------|
|-2-----------|-1-----------|  X2
|-2p0h2p0h2p0-|-2-----------|
|-0-----------|-2p0h2p0h2p0-|
|-------------|-0-----------|

BÁSICAMENTE ES ESTA LA CANCIÓN, DESPUÉS REPITE LO MISMO DE ANTES

PARA LA 2° ESTROFA Y 3° ESTROFA

ESPERO QUE LES SIRVA A TODOS

SALUDOS GRANDES!
Suggest correction
Give kudos to tab author, rate the tab!
1 2 3 4 5
comments
print report bad tab
guest
You may want to rate the tab now too:
select rating
Wanna post a correction for this tab? Suggest correction