Oops, an error
Loading. Please wait.

Desnuda Y Con Sombrilla Tab

193 views 1 this week
no commentswrite comment
1 2 3 4 5
3 more votes to show rating
add to favorites
launch autoscroll
font size
0
reset
how to read this tab
guitar tuner
×
Best way to learn
"Desnuda Y Con Sombrilla"
Autoscroll
slow
fast
+/-
esc
set tempo
stop
Intro
-----------------------------------------------------
--0--------------------------------------------------
---------1--------1---1--------1-------1---1---------
-------4---2----4---4--------4---2---4---4-----------
----2---------2------------2-------2-----------------
--0----------------------0---------------------------
A)         
TU        sentada en una sIlla

E y   E9                  B7      B7/F#   B7      B7/F#
-----------------------------------------------------------------
-0------------------------------0-------0-------0-------0--------
-------1-------1---1----------2-------2-------2-------2----------
-----4---2---4---4----------1-------1-------1-------1-----------
---2-------2--------------2---------------2------------------------
-0--------------------------------2---------------2--------0------


YO           de pie con expresiOn             de lOrd  
 A       ?         F#m y F#m9  E        C#m7      B7           B7/A 
-------------------------------------0---------2----------2----------2---------
-2------------5--------------------0---------3----------4----------4-----------
------2-----4----------2---------1---------2----------2----------2-------------
----2-----2----------4---4-2--------------------------------------------------
-0------4----------4--------------------4---------2-----------0----------------
-----------------2-------------0----------------------------------------------


Tu,desnuda y con sombrilla
Yo, vestido pero con calor


B)
 TU       con uñas y con diEntes mirandome de  frEnte con brillo de matAr
 A y A9                    F#m y F#m9            E y E9                G#m y G#m9 
---------------------------------------------------------------------------------------
--2-----2-------2---2------2---------------------0---------------------4--------------------
------4---2---4---4--------------2-------2---2---------1-------1---1---------4-------4---4-
----2-------2------------------6---4---6---6---------4---2---4---4---------8---6---8---8---
--0--------------------------4-------4-------------2-------2-------------6-------6---------
---------------------------2---------------------0---------------------4-------------------
   


 YO  retrocediendo un pOco llenandome  de un lOco deseo de  sangrAr
  A y A9               F#m y F#m9             E y E9             B7      B7/A   B7/G#  B7/F#  
-----------------------------------------------------------------------2-------2------2------2
--2-----2-------2---2--2---------------------0-----------------------4-------4------4------4
------4---2---4---4-----------2-------2---2--------1-------1---1---2-------2------2------2--
----2-------2---------------6---4---6---6--------4---2---4---4-----------------------------
--0-----------------------4-------4------------2-------2---------2-------0-----------------
-----------------------2---------------------0----------------------------------4------2-----
   


     
A)Tú besando tus rodillas
yo discreto pero sin rubor
tú creando maravillas
yo soñándome esquimal sin sol.
 
B)Tú con un ritmo tan lento
buscando un alimento
frotado con alcohol.
Yo de pronto ensimismado
mirándote alelado
colmada de licor.
     
A)Tú ardiente y sin capilla
yo quitándome el sombrero alón
tú dispuesta la vajilla
yo al filo de mi pantalón.
     
B)Yo a punto del delirio
extraigo un solo cirio
que poso ante tu flor.
Tú susurrando un misterio
de un no sé qué venéreo
me das un protector.
     
A)Tú sentada en una silla
yo de pie con expresión de lord
pero tú desnuda y con sombrilla
                       E 
yo vestido pero con calor


Yú , yo , él 
(aca se toca igual que la introduccion)


Este tema no es muy facil, porque Silvio alterna constantemente los acordes comunes con sus
novenas. Las tonicas de cada nota van donde puse las letras mayusculas en las palabras.
Caundo hacen los acordes, primero armen el acorde comun sin la novena, dejando el dedo meñique
para tocar las novenas. Para tocarlo bien, hay que escuchar el tema muchas veces. Suerte
Suggest correction
Give kudos to tab author, rate the tab!
1 2 3 4 5
comments
print report bad tab
guest
You may want to rate the tab now too:
select rating
Wanna post a correction for this tab? Suggest correction