Oops, an error
Loading. Please wait.

El Día Felíz Que Está Llegando tab

181 views 6 this week
no commentswrite comment
1 2 3 4 5
2 more votes to show rating
add to favorites
×
Save as Personal and add changes to this tab that will be seen only by you. Learn more ›
×
You can save this tab as Personal to edit and correct it or add notes. All changes will be seen only by you. Learn more »
launch autoscroll
font size
0
reset
how to read this tab
guitar tuner
edit
Autoscroll
slow
fast
+/-
esc
set tempo
stop
Esta es mi primera tablatura,por fin logré sacarla!Estoy seguro que muchos
la esperaban,ya que por ahora veo tremenda escasez de Tablaturas de Silvio 
en la  es una bonita y variada canción que espero disfruten todos 
los fanáticos y fanáticas de la  les sirve esta TAB,o quedan 
dudas,por favor háganmelo saber y concédanme el crédito

CONVENCIONES

(°) = Dejar timbrar nota ó acorde.A más(°°) el timbre será mas largo
[^] = Rasgueado hacia ABAJO (al piso)     v = Rasgueado hacia ARRIBA 
^x, vx = Rasgueado 'seco' o apagado al final
  

1. INTRO
                                   C
e|--5---5---5----3---3----1---1----0°°°---3---3---3----1---1----0---0--
b|---------------------------------------------------------------------
g|-5---5---5----4---4----2---2----0------4---4---4----2---2----0---0---
d|---------------------------------------------------------------------
a|---------------------------------------------------------------------
E|---------------------------------------------------------------------
                                                    
                                        C^     F^     G^°°°
  ---------1---1---1----0---0--------------------------3---------------
  --3°°°-------------------------3---3---1--1----------3---------------
  --------2---2---2----0---0-------------0------2--2---4----4°°°-------
  -3----------------------------3---3----2------3------5---------------
  ---------------------------------------3------3------5---------------
  ----------------------------------------------1------3---------------

Puntear rápido los duos de notas,que suenen con muy pequeña diferencia,
casi al uní acordes finales C,F y G son mas lentos.


2. PRIMERA ESTROFA

Los arpegios llevan un ritmo rápido, si escuchan la grabación sonarán 
mas bien  obviar esto,incluí LÌRICA en MAYUSCULAS que empata
con los BAJOS iniciales de cada arpegio (Omito ortografía por motivo 
espacio;el texto minúscula no necesariamente coincide con las notas) 

   C            F        G           C             F        G  
|-------------|--------|-----------|-------------|--------|-----------
|-1-----------|---1°---|---0-------|-1-----------|-----1--|-----------
|---0---0-----|---2----|-----------|---0---0-----|---2----|-----0---0-
|-----2---2---|--------|------0----|-----2---2---|--------|-------3---
|-3---------3-|--------|-----------|-3---------3-|--------|---2-------
|-------------|-1------|-3---------|-------------|-1------|-3---------

   C            F        G           C             F       *G 
|-------------|--------|-----------|-------------|--------|-----------
|-----1-------|--------|-----------|-----1-------|--------|-----------
|---0---0-----|---2°---|-----0-----|---0---------|---2----|-----0-----  
|-2-------2---|--------|---0-----0-|-2-----------|--------|---0-----0-
|-----------3-|--------|-------2---|-------------|--------|-------2---
|-------------|-1------|-3---------|--------3-3--|-1------|-3---------

NOTA* :En G lo mejor es ubicar la mano izquierda así:Meñique-Cuerda 4
Traste 3; Medio-Cuerda 5-Traste 2; Anular-Cuerda 6-Traste 3 

   C            F        G           C             F       G
|-------------|--------|-----------|-------------|-------|------------
|-1-----------|---1----|----0------|-1-----1-----|-------|---0--------
|-0---0-------|---2----|-----------|---0-----0---|---2°--|---------0--  
|-2-2---2-----|--------|-------0---|-----2-----2-|-------|------0-----
|---------3---|--------|-----------|-3-----------|-------|------------
|-------------|-1------|-3---------|-------------|-1-----|-3----------
     Se starri MANdo un DIA  fe     LIZ  

          C             F                 G          ^C/E ** 
        |-------------|-----------------|-------------3----------
        |-1-----1-----|-----------------|-0-------0---1\0-------
        |---0-----0---|---2-----2---(0)-|-------0-----0---0---0-
        |-----2-----2-|-------3---3-----|---0-------0-----------
        |-3-----------|-----3-----------|-----2-----------------
        |-------------|-1---------------|-3-----------------3---
            comohaceun BARco   tras los  MEses

NOTA**: En ^C/E, Posición Mano Izquierda:Meñique en Cuerda 1-Traste 3;
Indice en Cuerda 2-Traste 3 ;Cuerda 3 al  rasguea rápido las
3 cuerdas y se suelta al tiempo el índice,lo cual baja frecuencia 
y distorsiona el acorde.     
  
  Dm            G                C       E       Am       G
|---1---1-----|----------------|-1-----|--------|-------|---------
|-----3---(3)-|-0-------0---0--|-----1-|-----0--|-1°°---|-------0-
|-------------|---0-------0----|---0---|---1----|-2°°---|---0-----
|-0-----------|-----0----------|-------|--------|-------|-----2---
|-------------|----------------|-3-----|-2------|-0°°---|---------
|-------------|----------------|-------|--------|-------|-0-------
    seestacer  CANdoundíadabril      un DIA de  ABRril seVA rrimar

      
  F       Em   [Dm     C/Cadd9] G***                         G       ^x
|-------|-0°°-|-----1-|-------|-------|-3----|-3----|-3----|-3----|--3-
|-----1-|-----|---3- -|-----3-|-------|---3--|---3--|---3--|---3--|--3-
|---2---|-----|-------|---0---|-----4-|-----4|-----4|-----4|-----4|--4-
|-3-----|-2°°-|-0-----|-------|---5---|------|------|------|------|--5-
|-------|-----|-------|-3-----|-5-----|------|------|------|------|--5-
|-1-----|-----|-------|-------|-------|(3)---|(3)---|(3)---|(3)---|----
      a  LOS fiNA les     de    NOviembre ...

---------------------------------------------------------------------------
NOTA 3*** Para los arpegios G finales adapté una pequeña variación(para que
no suene desabrido ni pierda continuidad),ya que descarté la armonía del 
teclado que complementa a la guitarra en la grabación original.   

En adelante y en ciertos segmentos hallarán un sistema más práctico para 
seguir la SECUENCIA DE RASGUEADO Como la idea es no saturarlos con números,
basta con UBICAR los dedos según el ACORDE arriba de la tablatura y rasgar 
UNICAMENTE LAS CUERDAS CON (^) O CON (v)
           
  Ejemplo:        C                             C   ^  V
              ----^--v----                      ----0--0----
              ----^--v----  Es lo mismo que ... ----1--1---- 
              ----^--v----                      ----0--0---- 
              ------------                      ------------
---------------------------------------------------------------------------


3. SEGUNDA ESTROFA                Dm7   C   Dm    C
                      |------------5----3----1----0--
                      |------------6----5----3----1--
                      |-----------(5)--(5)--(2)--(0)-
                      |------------------------------
                      |------------------------------
                      |------------------------------    
                       y yo me apeGO   MAS   AL  MAR ...


  C         F      G        C                F             G
|---^-v-^-|-------|-------|-0--------|-----|-------------|------------
|---^-v-^-|---1---|----3--|-1------1-|-----|-----------1-|------------
|---^-v-^-|---2---|----4--|----0-----|-----|---2-----2-2-|-0------(0)-
|---^---^-|-------|-------|------2---|-----|-----3-------|----0-------
|---------|-------|-------|-3--------|-----|-------3-----|------2-----
|-3-------|-1-----|-3-----|----------|-0-0-|-1-----------|-3----------
                               me/rma NO DOble    de los  PEces
                       
 .                      ^      ^      ^     ^x
                      --3------3------3-----3----
                      --1\0----1\0----1\0---1----
                (C/E) --0------0------0-----0----
                      --2------2------2-----2----
                      ---------------------------
                      ---------------------------

  Dm               G                C       E       Am       C        
|-------0-1------|------------1---|-0-----|--------|-------|-0-------
|-----3----------|---0------0---0-|-------|----0---|-1-----|-------0-
|---2--------2-2-|-----0----------|-----0-|--1---1-|---2---|---0-----
|-0--------------|-------0--------|---2---|--------|-----2-|-----2---
|----------------|----------------|-3-----|--------|-0-----|-3-------
|----------------|-3--------------|-------|-0------|-------|---------
      y/enciendo   LEña/nel hogar     que  VIO  brilLAR la  TEMpestad  


  F       Em       [Dm     C/Cadd9] G                           G       ^x
|-1-----|-0-------|-----1-|-------|-------|-3----|-3----|-3----|-3----|-3-
|-1---1-|-----0---|---3- -|-----3-|-------|---3--|---3--|---3--|---3--|-3-
|-2-2---|---0---0-|-------|---0---|-----4-|-----4|-----4|-----4|-----4|-4-
|-3-----|-2-------|-0-----|-------|---5---|------|------|------|------|-5-
|-------|---------|-------|-3-----|-5-----|------|------|------|------|-5-
|-------|---------|-------|-------|-------|(3)---|(3)---|(3)---|(3)---|---
     que gUIA   el  CUrso     dsts  MEses ... 


4. INTERMEDIO  

  Dm  C/D   Dm7    G     C      D       G(G/D)
|-1---3-3---5-5---7-7---8-8---10-10----(3)-----^-------^--^-v-^-
|-3---5-5---6-6---8-8---8-8---10-10----(3)-----^-------^--^-v-^-
|-2---5-5---5-5---7-7---9-9---11-11----(4)-----^-^-v-^-^--^-v-^-
|----------------------------------------------^-^-v-^-^--^-v-^-
|------------------------------------------------^-v-^----------
|------------------------------------------3-3---^-v-^----------


  G   Dm7   C/D   Dm     C    ****     G(G/D)   °°  [     ]     
|-7---5-5---3-3---1-1---0-0---1-1-------^-------^----^-v-^---
|-8---6-6---5-5---3-3---1-1---1-1-------^-------^----^-v-^---
|-7---5-5---5-5---2-2---0-0---2-2-------^-^-v-^-^----^-v-^---
|---------------------------------------^-^-v-^-^----^-v-^---
|-----------------------------------------^-v-^--------------
|-----------------------------------3-3---^-v-^--------------

                                                   G(G/D)         
     Se repite todo el intermedio,excepto      |-----------^-----^--|
     la secuencia comprendida entre[    ],     |-----------^-----^--|
     que se reemplaza con esta variación:      |---^-v-^-^-^---^-^--|
                                               |---^-v-^-^-----^-^--|
     NOTA****:  VER '6. FINAL'                 |---^-v-^-^-----^----|
                                               |---^-v-^-^-----^----|

     

4. TERCERA ESTROFA

      C                      F     G        C          F        G  
    |(^)(v)(^)-(^)-(^)(v)|---^---|-^--^-V-|-^-^--^-v-|-^-|-^--^-V-^--
    |-^--v--^---^---^--v-|---^---|-^--^-V-|-^-^--^-v-|-^-|-^--^-V-^--
    |-^--v--^---^---^--v-|---^---|-^--^-V-|-^-^--^-v-|-^-|-^--^-V-^--
    |-^--v--^---^---^--v-|---^---|-^--^-V-|-^-^--^-v-|-^-|-^--^-V-^--
    |-^--v--^------------|---^---|-^------|----------|-^-|-^---------
    |--------------------|-------|--------|----------|---|-----------
                 se/starri MANdun DIA  de   SOL


    C                F                  G^         
    |-^-^°°-^-v-^-|--^---|-^-V---^-V-|-3-^--^-----^---^-----^-V-^---
    |-^-^---^-v-^-|--^---|-^-V---^-V-|-3-^--^-v-^-^---^-V-^-^-V-^---
    |-^-^---^-v-^-|--^-^-|-^-V-^-^-V-|-4-^--^-v-^-^---^-V-^-^-V-^---
    |-^-^---^-v-^-|--^-^-|-----^-----|-5-^--^-v-^-^---^-V-^-^-V-^---
    |-^-^---------|--^-^-|-----^-----|-5-^--------------------------
    |-------------|------|-----------|------------------------------
           undiade dUENdes        ENA  ÑEjo


    Dm7^          G^              C        E       Am        C        
    |--5-^--^-V--|-3--^-V----^--|-^--V-^-|-^--V-^-|-^--^-V-|-^--^-V-^-
    |--6-^--^-V--|-3--^-V----^--|-^--V-^-|-^--V-^-|-^--^-V-|-^--^-V-^-
    |--5-^--^-V--|-4--^-V----^--|-^--V-^-|-^--V-^-|-^--^-V-|-^--^-V-^-
    |--7-^--^-V--|-5-----(^)(^)-|-^------|-^------|-^------|-^--^-V-^-
    |--5---------|-5-----(^)----|-^------|-^------|-^------|-^--------
    |------------|-------(^)----|--------|--------|--------|----------
        se/cercaun PA JA RO  FE  ROZ ZUM  BANdoAL   GO  CE   DE tuolor


  F       Em    [Dm       C ]       G                             G      ^x
|-^-|--^-^-v-^-|-^--v-^-|-^°°-^-v-|-------^|-3----|-3----|-3----|-3----|-3-
|-^-|--^-^-v-^-|-^--v-^-|-^---^-v-|-------^|-3----|-3----|-3----|-3----|-3-
|-^-|--^-^-v-^-|-^--v-^-|-^---^-v-|-----4-^|-----4|-----4|-----4|-----4|-4-
|-^-|--^-^-v-^-|-^--v-^-|-^---^-v-|---5----|------|------|------|------|-5-
|-^-|----------|-^------|-^-------|-5------|------|------|------|------|-5-
|---|----------|--------|---------|--------|(3)---|(3)---|(3)---|(3)---|---
    seACErcaunti EM po        DECO  NEjos... 


5. CUARTA ESTROFA  Suena muy similar a la  va la lírica


 C        F         G      C·F·G   C            F              G
Y A MI me escarba la ansiedad     me escarba hondo acá en lo blando

  Dm         G               C      E       Am    (Am/SOL)  FA
me escarba simple de escarbar   como para que se hunda mas

  Em         Dm       G
el día feliz que esta llegando


6. FINAL  

Tararear y/o tocar el INTERMEDIO y conectar (después de la NOTA****
señalada en la sección ' con 

        Em                        Em   Am   Dm   Cmaj7  Dm7
       |-----^-------^---^-v-^x--------11---1-1---3-3---5-5--
       |-----^-------^---^-v-^-----0---12---3-3---5-5---6-6--
       |-^-^-^-^-v-^-^---^-v-^-----1---12---2-2---4-4---5-5--
       |-^-^-^-^-v-^-^-------------2-------------------------
       |-^-^---^-v-^-----------------------------------------
       |-^-^---^-v-^-----------------------------------------

  F/G    G     C    Dm   Cmaj7  Dm7    C    C(030100)               
|-------------0-0---1-1---3-3---5-5---8-8-------^---------^---^-v-^x-|
|-1-1---3-3---1-1---3-3---5-5---6-6---9-9---^-^-^---^-v-^-^---^-v-^--|
|-2-2---4-4---0-0---2-2---4-4---5-5---8-8---^-^-^---^-v-^-^---^-v-^--|
|-3-3---5-5---------------------------------^-^-^---^-v-^-^---^-v-^--|
|--^----------------------------------------^-^-----^-v-^------------|
|--^-----------------------------------------------------------------|


Si prefieren arpegiar unicamente el INTRO y rasguear el resto,
les sugiero intercalar las 'variaciones'  C/E: 002013, C(add9): x32030, 
y G/D: xx0433 entre los acordes 'normales',para darle más sonoridad al tema.

UN 'SUPER-SALUDO' DESDE COLOMBIA ...EXITOS !!!

            
            
Suggest correction
Creating personal tab
Creating personal tab
You can edit any tab online and save it as your Personal.

You can edit, replace or remove any tab part or add personal notes – all changes will be seen only by you.

Personal tabs can be accessed anytime from any device, even offline.
Learn more »
Give kudos to tab author, rate the tab!
1 2 3 4 5
comments
print report bad tab
guest
Wanna post a correction for this tab? Suggest correction