Oops, an error
Loading. Please wait.

El Hombre Extraño Tab

31 views 1 this week
no commentswrite comment
1 2 3 4 5
3 more votes to show rating
add to favorites
×
Save as Personal and add changes to this tab that will be seen only by you. Learn more ›
×
You can save this tab as Personal to edit and correct it or add notes. All changes will be seen only by you. Learn more »
save as personal
new!
launch autoscroll
font size
0
reset
how to read this tab
guitar tuner
Autoscroll
slow
fast
+/-
esc
set tempo
stop
SIlvio ROdriguez
El Hombre Extraño

ESta es la version en chile no conozco otra.
Se que no esta 100% correcta pero esta muy parecida :D.
--------------3---
-------0----1---1-
-0---0---2--------
---0--------------
------------------ 
-3----------------      pero tambien es el comienzo de la estrofa cantada

---------------------0---------------------2---------------5-----2-----3----3---2---0-----
-------0-----0---1-----1---2------------3---1-------8----5---5----3--3--3-5-5-3-3-1-1---0-
-----0-----0---0---0---------2--------5-------2---------------------------5---2---2---0-0-
---0-----1-------2-------------2----4-----1-------9------------0----------------------0---
-------------------------4--------5-------------7-----7-4-----------2-----3---2---0-------
-3------------------------------------------------------------------------------------3---

--------2-------
-----3------3---
------2---2---2-
--0-------------
----------------
-2-------------- Se repite pero con variaciones ke no voy a poner aqui :P

la estrofa donde canta silvio es parecido por el final lo arpegia...

Las notas del coro son

DO - SIm7m LAm - SOLm RE/FA#- SOLm RE/FA# - SOL7

ESo es todo puse el intro y la estrofa como lo toca silvio por que
la anterior tab ta mala.
Suggest correction
Give kudos to tab author, rate the tab!
1 2 3 4 5
comments
print report bad tab
guest
Wanna post a correction for this tab? Suggest correction