Oops, an error
Loading. Please wait.

El Viento Eres Tú Tab

version 1
version 1

Whole song

Interactive

27 views 1 this week
no commentswrite comment
1 2 3 4 5
3 more votes to show rating
add to favorites
launch autoscroll
font size
0
reset
how to read this tab
guitar tuner
Autoscroll
slow
fast
+/-
esc
set tempo
stop
Help us to improve Ultimate-Guitar.com Take our survey!
×
Esta trascripción quiero dedicarla a  genito, tarde horas en 
hacerla, pero son mas de las que pienso en ti.


Esta  canción esta armonizada en el relativo menor de C o sea A
menor, el compás es 6/8, creo, después de escucharla con 
atención les saldrá bien. 

             
Intro:


e:-----------------------------------------------------|
B:--------1--------------1-------------1---------------|
G:------2--------------0-------------2-------------0---|
D:----2--------------2-------------2-------------2-----|
A:--0--------0-h2-h3-------3--2--0-------0-h2-h3------2|
E:-----------------------------------------------------|


e:-----------------------------------------1--------------------|
B:------------1-------------1------------3-------------3------3-|
G:----------3-------------3------------2-------------2------2---|
D:---0----2-------------2--------------------0-h2-h3------2-----|
A:-0----0-------0-h2-h3-------3--2
Suggest correction
Give kudos to tab author, rate the tab!
1 2 3 4 5
comments
print report bad tab
guest
You may want to rate the tab now too:
select rating
Wanna post a correction for this tab? Suggest correction