Oops, an error
Loading. Please wait.

El Viento Eres Tú Tab

version 2
version 2

Whole song

Interactive

53 views 1 this week
no commentswrite comment
1 2 3 4 5
3 more votes to show rating
add to favorites
launch autoscroll
font size
0
reset
how to read this tab
guitar tuner
×
Best way to learn
"El Viento Eres Tú"
Autoscroll
slow
fast
+/-
esc
set tempo
stop
A veces... sucede que no sabes como expresarte y
en ese momento (si tienes suerte), descubres un poema
o una canción que expresa exactamente lo que quieres
y como los poemas (y las canciones) no son de quien
los compone, sino de quien los necesita, yo tome prestada
ésta canción.

   Dedicada a CRIS
           No te verán mis ojos
           mi corazón te guarda.

...................................................
Rift 1
E|-----------------------------------------------------------------------|
B|----------0-----------------0-----------------0------------------------|
G|-------0-----------------0-----------------0-----------------0---------|
d|----2-----------------0-----------------2-----------------0------------|
a|-----------------------------------------------------------------------|
e|-0-----------0--2--3-----------3--2--0-----------0--2--3--------3--2---|
...................................................
Rift 2
E|-----------------------------------------------------------------------|
B|----------1-----------------1-----------------1------------------------|
G|-------2-----------------0-----------------2-----------------0---------|
d|----2-----------------2-----------------2-----------------2------------|
a|-0-----------0--2--3-----------3--2--0-----------0--2--3--------3--2---|
e|-----------------------------------------------------------------------|
...................................................
Rift 3
E|-------------------------------------------------------|
B|----------1-----------------0--------------------------|
G|-------2-----------------0----------------2------------|
d|----2-----------------0----------------2---------------|
a|-0-----------0-----------------------0-------0---------|
e|----------------3--2-----------2--3-------------3------|

...................................................
Rift 4
E|-------------------2--------0-------|
B|----------1-----1--------1-----1----|
G|-------2-----2--------2-----------2-|
d|----2-------------------------------|
a|-0----------------------------------|
e|------------------------------------|

...................................................
Rift 5
E|-------------------5--------0-------|
B|----------3-----3--------1-----1----|
G|-------4-----4--------4-----------4-|
d|----5-------------------------------|
a|------------------------------------|
e|-3----------------------------------|
...................................................
   Em
E|-------------------0-----------|
B|----------0-----0-----0--------|
G|-------0-----0-----------0-----|
d|----2--------------------------|
a|-------------------------------|
e|-0-----------------------------|
...................................................
   G
E|-------------------1-----------|
B|----------0-----0-----0--------|
G|-------0-----0-----------0-----|
d|----0--------------------------|
a|-------------------------------|
e|-3-----------------------------|
...................................................
   Am
E|-------------------0-----------|
B|----------1-----1-----1--------|
G|-------2-----2-----------2-----|
d|----2--------------------------|
a|-0-----------------------------|
e|-------------------------------|
...................................................
   C
E|-------------------0-----------|
B|----------1-----1-----1--------|
G|-------0-----0-----------0-----|
d|----2--------------------------|
a|-3-----------------------------|
e|-------------------------------|
...................................................
Rift Final
                                                              arm
E|--------------------------------------------------------------|
B|-------------------------0------------------------------------|
G|-------------0--------------2---------------------------------|
d|----------0--------------------3--2--0----------------------------|
a|----------------------------------------3--2--0-------------------|
e|-0--2--3--------3--2--0--------------------------3--2--0----------|
...................................................

Rift1  Rift2  Rift3

Em                                      G
A veces entra en el bosque un silbido veloz
Am                                 C
que recorre fugaz la penumbra y la luz,
                          Am
y los árboles fríos del bosque soy yo.


Rift1


Em                                     G
Todas las copas se postran a fin de existir;
Am                                   C
de no hacerlo, deshechas habrían de morir,
                          Am
y ese viento que trae la muerte eres tú.


Rift1

Rift4                           Rift5
Eres la llama que abraza la flor
Rift4                           Rift5
y la violencia del fiero huracán,
             C
la sombra oscura que sigue mi amor.
               Rift5
Por qué, por qué tú sigues, di,
                 C
matando este amor que hoy dejas.


Rift1
Rift2
Rift3
Rift Final

Cuando canten esta canción tendrán que repetir los Rifts para darle los
tiempos adecuados, casi siempre se repiten dos veces.

Espero les guste.
Suggest correction
Give kudos to tab author, rate the tab!
1 2 3 4 5
comments
print report bad tab
guest
You may want to rate the tab now too:
select rating
Wanna post a correction for this tab? Suggest correction