Oops, an error
Loading. Please wait.

El Viento Eres Tú Tab

version 3
version 3

Whole song

Interactive

47 views 1 this week
no commentswrite comment
1 2 3 4 5
3 more votes to show rating
add to favorites
launch autoscroll
font size
0
reset
how to read this tab
guitar tuner
×
Best way to learn
"El Viento Eres Tú"
Autoscroll
slow
fast
+/-
esc
set tempo
stop
En algunas partes va el tiempo del CD (min:seg)
para más orientación.


------------------------------------------------------------------
1. INTRO
------------------------------------------------------------------

Em
------------|--------------------|-----------------
-----0------|-----0--------------|-----------------
---0--------|---0--------------0-|---------0-------
------------|-0-----------2------|-------0----<0>*-
------------|----------------2---|-----------------
-0------0h2-3-------3-2-0--------|-0h2-3-----2<h3>-
[A]


Am           C          Am           Am?
-------------|---------|-----------|--------------
-------1-----|-----1---|---------1-|------------1-
---2---------|-0-------|-----2-----|-------2------
-----2-------|---2-----|-------2---|---------2----
-0-------0h2h3-------3-|-2-0-------|-0h2h3--------
-------------|---------|-----------|--------------

.0:15                         0:18
[x2120x]         Am           [22120x]
-------------|---------------|------------|--------------
-----------0-|---------1-----|-----0------|--------------
---------2---|-------2-------|---2--------|------------0-
-------1-----|-----2---------|-1----------|-------2------
-2r0-2-------|---0-------0---|------------0---------2----
-------------2h3---------|-3-2--------2h3-|-3-2-0--------
                         |...|*

|...|*= Este fragmento va así en la Guitarra 2=  65-63-62


---------------|--------|-----------0-------
---------------|-----2?-|---------------0---
---------------|---?----|-----0---0---0---0-continua con "verso"
-------0-----0-|--------|---2---2-----------
--------(0)----|--------|-2-----------------
-0h2h3-----2---|-0------|-------------------
           [a']

------------------------------------------------------------------
2. VERSO
------------------------------------------------------------------


. MIm      SOL         MIm         SOL     LAm
A)A veces entra en el bosque un silbido veloz
.     DO      LAm       DO         SI
que recorre fugaz la penumbra y la luz,
.     LAm      SI        LAm        MIm
y los árboles fríos del bosque soy yo.


A)Todas las copas se postran a fin de existir;
de no hacerlo, deshechas habrían de morir,
y ese viento que trae la muerte eres tú.


Em              G               Em               G
--------------|---------------|----------------|----------------|
-------0--(0)-|-------0---(0)-|-------0--------|-------0----(0)-|
-----0---0----|-----0---(0)---|-----0------0---|-----0---(0)----|
-2-2----------|---0-----------|---2------0-----|---0------------|
--------------|---------------|----------------|----------------|
-0------------|-3-------------|-0--------------|-3--------------|


Am            C             Am
-------------|-------------|---------------
-------1---1-|-------1---1-|-------1---(1)-
---2-----2---|---0-----0---|---2-----2-----
-----2-------|-----2-------|-----2---------
-0-----------|-3-----------|-0-------------
-------------|-------------|---------------


(:   x21202               :)
-----------2-|-----2-------|-------------|-------2--------
-------0-----|---0---0-----|-------0---0-|-----0---(0)----
---2-----2---|-2-------(0)-|---2-----2---|---2--------(0)-
-----1-------|-------------|-----1-------|----------------
-2-----------|-------------|-2-----------|----------------
-------------2-------------|-------------|-2--------------


Frag/to[: :]Simplificado: 52-32-41-20-32-20 > 62-32-41-20-32-20

Em                                               Em
--------:------------------------|-------:-------|---------0----
------0-:------------------------|-------:-------|-------0------
----0---:---------0------------0-|-------0-------|-----0--------
--2-----:-----0------------2-----|-----0-:-----0-|-2------------
--------:-------2------------2---|-------:---0---|---2----------
0-------0h2h3--------3-2-0-------0h2h3---:-2-----0--------------
.       [b]............................[b´]      todas las copas..


------------------------------------------------------------------
3. CORO
------------------------------------------------------------------


 [antes del coro...]  Am
---------------------|----------0-------0---1-
---------------------|------1---------1---1---
---------------------|--2-----2-----2---------
repite fragmento-----|----2-------2-----------
-[b] hasta [b´] + ---|-0----------------------
-----------------2-3-|-:----------------------
.                     [C].....................

.                     Eres...LA llama...

. LAm  RE7               SOL
B)Eres... la llama que abraza la flor
LAm RE7               SOL
y... la violencia del fiero huracán,
SOL7                   DO            DOm
la sombra oscura que sigue mi amor.
.   SOL      RE     MIm     SI
Por qué, por qué tú sigues, di,
..DO         RE             MIm
matando este amor que (hoy) dejas.


D
-------2------------2---------
-----3-----3------3------(3)--
---2-----2------2-----(2)-:---
-0------------0-----------:---
--------------------------:---
--------------------------:---
.......................[c'].


-------3------5-----3-----|----------h5-----3-------------------
-----3------3-----3-----3-|---3----3------3-----3---------------
---4------4-----4-----4---|-4----4------4-----4-----------------
--------------------------|------------------------REPITE desde-
--------------------------|-----------------------[c] hasta [c']
-3------------------------3-------------------------------------

xx              zz
--------------|-------5r3---------------h5r3-------
-------3---3--|-----3-----3-------3---3------3---5-
-----3---4----|---4---------4---4---4----------3---
--------------|------------------------------------
---4----------|------------------------------------
-3------------|-3-------------3--------------------
[D]


Simplificado :

xx = [63-53-40-30-20] [43-30-13-30-20]

zz = [63-55-45-44 45-44-13-44-45-63-13-44]


[320001]  (1:28 - 2:41)
---------------|-----1------1-----1-|-------------
-------0-----0-|---0------0-----0---|-------0---0-
-----0-----0---|--------0-----------|-----0---0---
---3-----3-----|--------------------|---0---------
---------------|--------------------|-------------
-3-------------|-3------------3-----|-3-----------
LA... sombra oscura

C                                                     G
.                                                  (1:42-2:52)
--------0---|-----------------|-------------------|-3-------0-
------1-----|-----1---0-1-----|-----1-----1-----1-|---0---0---
----0-----0-|---0---2-----0---|---0-----0-:---0-:-|-----0-----
--2---------|-2-------------1-|-1-----1-:-:-1-:-:-|-----------
3-----------3-----------------|---------:-:---:-:-|-----------
------------|-----------------3---------5-3---5-3-|-3---------


D                          [0xx000]
-------2-----------2-----|-------0------|-----0------
-----3-----3-----3-----3-|-----0-----0--|---0------0-
---2-----2-----2-----2---|---0-----0-:--|-0------0-:-
-0-----------0-----------|-----------:--|----------:-
-------------------------|-----------:--|----------:-
-----------------------6-|-0---------6--3----------:-
                                                   [d']
[x21202]                C
-------2-----------2---|-------0-----|-----0-----
-----0-----0-----0-----|-----1-----1-|---1-----1-
---2-----2-----2-----2-|---0-----0---|-0-----0---
-------------1---------|-------------2-----------
-2---------------------|-3-----------|-----------
-----------------------|-------------|-----------


-------2-----h2-----2---|--------------|---------------0-----------
-----3-----3------3-----|--------------|---------0---0-----0-----0-
---2-----2------2-----3-|----repite----|-------0---0-----0-----0---
-0----------------------|--INTRO-desde-|-----2---------------------
------------------------|-[a] hasta [a'] + ------------------------
------------------------|--------------|---0-----------------3-----
amor...          que hoy  DEJAS


------------------------------------------------------------------
4. FINAL                II-0 III-2·0 IV-4·2·0 V-3·2·0 VI-3·2·0
.                        Arm. I y II traste 12
------------------------------------------------------------------


.                                                       (armónico)
--------------|--------------|-------------------------------12*-
--------------|--------------|-0-----------------------------12*-
--------------|--------------|---2-0-------------------------12*-
----repite----|----repite----|-------1-2-0-----------------------
----desde ----|-INTRO desde- +-------------3-2-0-----------------
[d] hasta [d']|[a]-hasta [a']|0------------------3-2***-0***------

                                                          ES TODO

Lírica y acordes del Cancionero de S.R. compilado por  Zigor A.C.
Suggest correction
Give kudos to tab author, rate the tab!
1 2 3 4 5
comments
print report bad tab
guest
You may want to rate the tab now too:
select rating
Wanna post a correction for this tab? Suggest correction