Oops, an error
Loading. Please wait.

En El Claro De La Luna Tab

76 views 3 this week
no commentswrite comment
1 2 3 4 5
3 more votes to show rating
add to favorites
launch autoscroll
font size
0
reset
how to read this tab
guitar tuner
Autoscroll
slow
fast
+/-
esc
set tempo
stop
Help us to improve Ultimate-Guitar.com Take our survey!
×
Esta es la canción de Silvio con todo e introducción
Está en la tonalidad original, está muy alta para cantar
si la quieren bajar les recomiendo usar un capo para que sea
más fácil transportarla espero que les guste y que les ayude.


-0--0-2-3-------0-2-3--------------------------0-1-1--7-7
--0-------0-1-0-------0--------5-5-5-7-5-0---0--------
---------------------------2-2-------------2------------
--------------------------------------------------
--------------------------------------------------
--------------------------------------------------


Al tocar el Em pueden hacer el siguiente bajeo

------------------------------------------------
------------------------------------------------
------------------------------------------------
-------------------------------------------------
---3-2----3-2----3-2---2-3-----------------
-0------0------0-----0------------------------


Em
En el claro de la luna
donde quiero ir a jugar,
Am              B7
duerme la Reina Fortuna
Am             B7
que tendrá que madrugar.
E 
Mi guardiana de la suerte,
sueña cercada de flor
Am               B7
que me salvas de la muerte
Am              B7
con fortuna en el amor.
Em                       D
-Sueña, talismán querido,
G
sueña mi abeja y su edad;
       B7             C
sueña y si, lo he merecido,
      G        B7
sueña mi felicidad.
 Em                      D
-Sueña caballos cerreros,

suéñame el viento del sur,
       B7            C
sueña un tiempo de aguaceros
       G         B7
en el valle de la luz.

A
-Sueña lo que hago y no digo,
C
sueña en plena libertad,
A
sueña que hay días en que vivo,
B7
sueña lo que hay que callar.

-0--0-2-3-------0-2-3--------------------------0-1-1--7-7
--0-------0-1-0-------0--------5-5-5-7-5-0---0--------
---------------------------2-2-------------2------------
--------------------------------------------------
--------------------------------------------------
--------------------------------------------------

Em
Entre las luces más bellas
duerme intranquilo mi amor
Am                     B7
porque en su sueño de estrellas
       Am           B7
mi paso en tierra es dolor.
Em
Mas si yo pudiera hacerle
miel de abeja en vez de sal
Am              B7
a qué tentarle la suerte
   Am         B7
que valiera su soñar.

Em                          D
-Suéñeme, pues, cataclismo,
G
sueñe golpe largo y sed,
      B7          C
sueñe todos los abismos,
        G          B7
que de otra vida no sé.

Em                           D
-Sueñe lo que hago y no digo,
G
sueñe en plena libertad,
           B7             C
sueñe que hay días en que vivo,
            G          B7
sueñe lo que hay que callar.
A
-Sueñe la talla del día,
C
del día del que fui y del que soy
A
que el de mañana, alma mía,
B7
lo tengo soñado hoy.

E 
-Sueñe la talla del día,
del día del que fui y del que soy
Am                B7
que el de mañana, alma mía,
Am           B7     Em
lo tengo soñado hoy.


-0--0-2-3-------0-2-3--------------------------0-1-1--7-7
--0-------0-1-0-------0--------5-5-5-7-5-0---0--------
---------------------------2-2-------------2------------
--------------------------------------------------
--------------------------------------------------
--------------------------------------------------

Disfrútenla
Suggest correction
Give kudos to tab author, rate the tab!
1 2 3 4 5
comments
print report bad tab
guest
You may want to rate the tab now too:
select rating
Wanna post a correction for this tab? Suggest correction