Oops, an error
Loading. Please wait.

Esta Es La Vida Tab

19 views 1 this week
no commentswrite comment
1 2 3 4 5
3 more votes to show rating
add to favorites
launch autoscroll
font size
0
reset
how to read this tab
guitar tuner
Autoscroll
slow
fast
+/-
esc
set tempo
stop
Help us to improve Ultimate-Guitar.com Take our survey!
×
-AFINACION ESTANDAR-

-------------------------------------------------------------
1. RIFF "1" -INTRO-                         RE·SOL·DO·LA[LA4]
-------------------------------------------------------------
                                           LA4: Asus4: x02230

h = hammer r= soltar
°°= timbre +/- largo
^, r = rasgueo h. Abajo -ó p, pulsado (cuando se especifique)
v, r = rasgueo  -ó p, pulsado (""")


 D*                    G                      C*
------0h2-2-2-2r0---3------------------3-|0----------------------
3---3-----3-3-----3-|---0----------0-3---|----3---1-----0h2r0----
--2-------2-2-------|-0---0------0-------|--0---0-----0-------2r0
0-------------------|--------0-----------|----------2------------
--------------------|-----------2--------|3----------------------
--------------------3--------------------|-----------------------
                                                             i
 A - Asus4
-----------0------------
---0-----0---3----2-0---
-------2-------2------2-
-----2------------------
-0-----------0----------
------------------------
                  ñ


D                    G                      C
------0h2-2-2-2r0---3------------------3-|0------------------
3---3-------------3-|---0----------0-3---|----3---1-----0----
--2-----------------|-0---0------0-------|--0---0-----0---2r0
0-------------------|--------0-----------|----------2--------
--------------------|-----------2--------|3------------------
--------------------3--------------------|-------------------

 A - Esus4 - Asus4 - A
     002200  X00230

-----------0------------
---0-----0---3----2-0---
-------2-------2------2-
-----2------------------
-0-----------0----------
------------------------

--------------------------------------------------------------
2. RIFF "2" -                                RE·SOL·DO·LA[LA4]
--------------------------------------------------------------

D                    G                      C
------2---------2---|-------3--------------|---------0-----------0
--3-----3---3-----3-|---0-----0-------0----|-----1-----------1----
----2---------2-----|-----0-----0---0------|-0-----0-----0-----0--
0---------0---------|-0-----------0--------|---2-----------2------
--------------------2**-----------------h2h3-----------3----------
--------------------|----------------------|----------------------
                                                             i
A - Esus4 - Asus4 - A
----------0------------
--------0---3----2-0---
------2-------2------2-
----2------------------
-0----------0----------  se repite el riff desde D
-----------------------  hasta C ,y sigue esto:


A - Esus4 - Asus4 - A   *p ^ Vx
---------------0---------0-0-0-
--------3----------2-----2-2-2- *p= pulsar primero y luego
------2----2-----2-----2-2-2(2)  rasguear según las flechas
----2----------------2--------
-0-----------0----------------   vx=  al final
------------------------------


--------------------------------------------------------------
3. RIFF "3" -                                RE·SOL·DO·LA[LA4]
--------------------------------------------------------------

 D**                   C         A        (A7/G)     D/F#
-------2--------------|-----0-0-|---------|---------|----------
----(3)--3-------0----|-----1-1-|-------2-|-------2-|----3-----
---2-----------0------|-0---0-0-|---2-----|---2-----|------2---
-0-----------0--------|---2-----|-----2---|-----2---|--------0-
-----------2-------h2h3---------|-0-------|---------|----------
----------------------|---------|---------|-3-------|-2ººº-----
     esta es la viiida ...

F            E             A        Am11  C/D
                                       ^  ^
------------|-----------0-|------------5--0-^-v-^x
-----1------|---------0---|-----2------5--1-^-v-^-
--(2)--2----|-------0-----|---2---2----5--0-^-v-^-
---------3--|-----2-------|----------2-0--0-------
------------|---2---------|-0---------------------
-1ºººº------|-0-----------|-----------------------


 D7 [xx0212]    G               F#m    Em6/Bb     Bm 212020
       v v ^                           x12020         ^ ^ vx
-------2-2-2-|-------2-2-(2)-|--------|-------|-------2-2-2|
---1---1-1-1-|-----0-2-2-(2)-|--------|------ |-----3-3-3-3|
-----2-------|---0---0-0-(0)-|---3----|-------|-------4-4-4|
-0-----------|---------------|----(4)-|---2---|---4---4----|
-------------|---------------|--------|-1-----|-2----------|
-------------|-3-------------|-2------|-------|------------|
                                         rayo   goolpedevien

E    ^ ^ vx   D#/F         G** ^ v ^ vx  D/F#
-------0-0--|-----2--2-(2)-|---1-1-1-1-|-------2-------
-----0-0-0--|-----3--3-(3)-|---0h1-1-1-|-----3-----(3)-
---1-1-1----|---2-2--2-----|---0-0-0-0-|---2-----2-----
-----2------|-----0--------|---0-------|---------------
------------|--------------|-----------|---------------
-0----------|-2------------|-3---------|-2-------------
to                 estaesmicruz            y el alime
                     p r r
Em          C        v ^ v
-----------|-----------0-0-|--------------0-
---------0-|-------1-1-1-1-|-------2--------
-------0---|-----0---0-0---|-----2---2------
-----2-----|---2----- -----|---2-------2----
---2-------|-3-------------|-0--------------
-0---------|---------------|----------------
nto de mi


> REPITE MUY SIMILAR AL RIFF 2 y luego toca esto:


-------------------------------------------------------------
4. CORO II      (DO·SOL·RE/FA#)> DO·SOL·MI > [LA·RE·MI·RE·MI]
-------------------------------------------------------------


C                   G  ^ v ^ v ^  D/F#   v
----------V-^-V-^-|----3-3-3-3-3-|-------2-^-V-----2-2-
----------V-^-V-^-|----0-0-3-3-3-|-----3-3-^-V ----3-3-
----------V-^-V-^-|----0-0-0-0---|---2---2-^-V-----2-2-
--------2---------|--------------|---------------------
-0h2h3ºº----------|--------------|---------------------
------------------|-3------------|-2-----------0h2-----
corazón    quehasabido amar llorando


C                   G  ^ v ^ v ^  D/F#   v
--------------^-V-|----3-3-3-3-3-|-------2-^-V-------^x
------------1-^-V-|----0-0-3-3-3-|-----3-3-^-V ----^-^-
--------0-----^-VX|----0-0-0-0---|---2---2-^-V-----^-^-
----------2-------|--------------|-----------------^---
-0h2h3ºº----------|--------------|---------------------
------------------|-3------------|-2-----------0h2-----
corazón    quehasabidocantar   verdad


similar para:

C                   G            D/F# [VI-2 ^v^ VI-0h2 ^^^x]
corazón    quehasabidomorir   andando
C                   G
corazón     prisionero  deliber-

 E
-0-^--^-V-^-V--^--------
-0-^--^-V-^-V--^----^-V-
-1-^--^-V-^-V--^----^-V-
-2-^-----------^-^X-^-VX
-2-^-------------^------
-0---------------^------
taaad               cora-


Luego Silvio hace un arreglo magistral a dos guitarras
con el ritmo más alegre que haya oído en canción alguna.
Aunque con una sola guitarra pierde algo de fuerza creo
que mejora combinando los rasgueos con uno que otro bajo.


Guit. 1
A[x03330]    D  ^  rápido  E                D   E
-^----^-V-^-|---2-V-^-V-^-|-0-V-^-V-^-V-^-|-2-|----0-^X-
-^----^-V-^-|---3-V-^-V-^-|-0-V-^-V-^-V-^-|-3-|----0-^--
-^----^-V-^-|---2-V-^-V-^-|-1-V-^-V-^-V-^-|-3-|-R--1-^--
-^----^-V-^-|(0)0---------|-2-------------|-0-|-^-------
-^----------|---0---------|-2-------------|-0-|-2-------
------------|------------(0)--------------|---|-0-------
 zón  quehasabidoamarlloranDO             |         cora-
            |             |               |
            |             |               |
------------|-0ººººº------|---------------| IV  Guit.2
-0-0-4-2-0--|-------------|---------------| V   BAJOS
------------|-------------0ººººº----4-2ºº-| VI


el resto del coro se repite  + o menos igual hasta D [Re]
en "corazón, prisionero de liber-"  y luego esto:


G  v *   *   *        C   v *
---3-^x--V---V-|[x2]  |---0-^---V---V-|[x2]
---3-^---V---V-|      |---1-^---V---V-|
---0-^---V---V-|      |-----------0---|
-----------0ººº|  >>> |-------2-------|
-------2ººº----|      |-3-------------|*preferible pulsado,
-3ººº----------|      |---------------|     con dirección
 tad .....

D               A      ^
-------------0-|-------0ºººv-^x-
-------3-------|-2-----2---v-^--
-----2---2-----|-----2-2---v-^--
---0-------0---|---2---2--------
-0-------------0----------------
---------------|----------------

repite RIFF 3 DESDE D** hasta G**("esta es mi cruz") +esto:


-----------------------------------------------------------
5. FINAL
-----------------------------------------------------------


  D/F#     Em7 022030    F#m           Bm7 x24232
-------0-|-------------|-----------2-|-------2--------|
-----3---|-----3-----3-|---------2---|-3---------3----|
---2-----|---0---0-----|-------2-----|-----2---2------|
---------|---------2---|-----4-------|---4------------|
---------|-------------|---4---------2----------------|
-2-------|-0-----------|-2-----------|----------------|
Y elalimeeento de mi luz


Em7           A7 x02020
-----------0-|---------|
---------3---|-3---2ºº-|
-------0-----|---0-----|
-----2-------|---------|>>REPITE RIFF 1  DESDE D* HASTA C*
---2---------|-0-------| y luego:
-0-----------|---------|
    y el alimentooo


Am Esus4[002200]                 rápido
---------------|-----------|---------3-----|-3ººººº-|
---0-----0-----0-----0-----|-----0---------|-0------|
-2-----2-----2-|---2-----2---0-------------|-0------|
-----2-----2---|-0-----0---|-------0-------|-0------|
-0-------------|-----------|---2-----------|-2------|
---------------2**---------3------------3x-|-3------|THE END
                                                     Enjoy!


-----------------------------------------------------------
LETRA    "Esta es la vida"
-----------------------------------------------------------

[riff 2]
Esta que canta si sale el duende
Y hace silencio cuando ya no
Esta es la vida que me sorprende
Esta es la vida que me parió

(Coro 1)-[riff 3]

Esta es la vida
esta es la sal querida
Que goza que sangra mi amor
Este es mi polvo y mi flor
Y mi lluvia, rayo, golpe de viento,
Esta es mi cruz
y el alimento de mi luz

[riff 2]
Esta es la vida que me enamora
Esta es la vida que me da voz
La que regaña cuando se atora
La que no excusa siquiera Dios


(Coro 2) [rasgueo y bajos]

Corazón, que ha sabido amar llorando
Corazón que ha sabido cantar verdad
Corazón que ha sabido morir andando
Corazón prisionero de libertad

Bis coro 2

>> Coro 1 [riff 3 y final]
Suggest correction
Give kudos to tab author, rate the tab!
1 2 3 4 5
comments
print report bad tab
guest
You may want to rate the tab now too:
select rating
Wanna post a correction for this tab? Suggest correction