Oops, an error
Loading. Please wait.

Expedición Tab

16 views 1 this week
no commentswrite comment
1 2 3 4 5
3 more votes to show rating
add to favorites
launch autoscroll
font size
0
reset
how to read this tab
guitar tuner
Autoscroll
slow
fast
+/-
esc
set tempo
stop
Help us to improve Ultimate-Guitar.com Take our survey!
×
Estuve escuchando la transcripicón anterior y tenía unos
errores, acá está la correcta...

E------------------------------------I
A----------------------4-------------I
D--2---------1-----------------------I
G------------------------------------I
B-----0----0---0-----0----0-0-0-0-0--I
e--4---------2---------0-------------I

E------------------------------------I
A----------------------4-------------I
D--2---------1-----------------------I
G------------------------------------I
B-----0----0---0-----0----0-0-0-0-0--I
e--4---------2---------0-------------I

E----------4-------2-------------4---I
A--0---------------------------------I
D------------------------------------I
G------------------------------------I
B-----0-0-----0-0-----0-0-0-0-0------I
e--0-------0-------0-------------0---I

E----------4-------2-----------------I
A--0---------------------------------I
D------------------------------------I
G------------------------------------I
B-----0-0-----0-0-----0--0-2-4-------I
e--0-------0-------0-----------2p0---I
Suggest correction
Give kudos to tab author, rate the tab!
1 2 3 4 5
comments
print report bad tab
guest
You may want to rate the tab now too:
select rating
Wanna post a correction for this tab? Suggest correction