Oops, an error
Loading. Please wait.

Fábula De Los 3 Hermanos Tab

version 1
version 1

Whole song

70 views 3 this week
no commentswrite comment
1 2 3 4 5
3 more votes to show rating
add to favorites
launch autoscroll
font size
0
reset
how to read this tab
guitar tuner
Autoscroll
slow
fast
+/-
esc
set tempo
stop
Para esta tab usé 'NERO WAVE ' y POWER TAB EDITOR.
Disfrutenla,bienvenidos sus comentarios y crédito por este trabajo.

---------------------------------------------------------------------
1. INTRO -GUITARRA PURA-
---------------------------------------------------------------------
El original suena fusionado con punteos de un 'Tres' cubano que omito;
aquí solo separé los arpegios de fondo. (Versión II al final de esta tab.)


G          D/F#*     E               C       Em/B [G/B] Am
-------3-|-------2-|---------------|--------|-------0-|-------------
-----3---|-----3---|--------0----0-|------1-|-----0---|--------1----
---4-----|---2-----|------0--------|----0---|---0-----|------2------
---------|---------|----2-----0----|--------|---------|----2--------
---------|---------|---------------|-3°°----|-2-------|-0°°------2/3
-3-------|-2*------|-0°°-----------|--------|---------|-------------


 D        C         G/B   C         G/B     Am        G        ^ vx
--------|---------|-------|-------|-------|---------|----------3-3--
------3-|-------1-|-------|-------|-------|-------3-|(0)----0--3-3--
----2---|-----0---|-----0-|---0---|-----0-|-----2---|-----0----4-4--
-0------|---2-----|---0---|-2-----|---0---|---2-----|---0------5----
--------|-3-------|-2-----3-----3-|-2-----|-0-------|---------(5)---
--------|---------|-------|-------|-------|---------|-3*------------


 G          D/F#      E               C*       G/B      Am
--------3-|-------2-|---------------|--------|---------|------------
------3---|-----3---|--------0----0-|------0-|-------3-|--------1---
----4-----|---2-----|------0--------|----0---|-----0---|--2---2-----
----------|---------|----2-----0----|--------|--(0)----|----2-------
----------|---------|---------------|-3°°----|-2-------|0°°------2/3
--3-------|-2*------|-0°°-----------|--------|---------|------------


 D       C        G/B    C      G/B* Am*G*  D/F#*   ^ vx             ^x
--------|--------|------|------|-----|-|-|-------- 2-2- 2-2-2-2-2-2-2
------3-|-----(0)|------|------|-----|0*0*-------3-3-3--3-3-3-3-3-3-3
----2---|----0---|----0-|------|----0*-|-|-2°°-2---2-2--2-2-2-2-2-2-2
-0------|--2-----|--0---|------|--0*-|-|-|---0----------0-0-0-0-0-0-0
--------|3-------|2-----|3°°-3-|2°°--|0|-|-------------(0)-----------
--------|--------|------|------|-----|-|3|-2°°-----------------------


---------------------------------------------------------------------
1.D/F#*= Casi un 'RE' normal con bajo;Pulgar izq. en Cuerda VI-Traste 2.
 G 3*,Aplicar INDICE  cejilla,esta aplicarla solo durante
  rasgueo para no perder ritmo.[Rasgueo al piso= ^ , en seco= Vx]
3./= deslizar ° = Dejar timbrar nota ó acorde. (°°)=  timbre mas largo
4. Las Notas con* en  G/B*  Am*, G* son arreglos opcionales para completar
   En la original solo suenan bajos largos en lugar de arpegios.
---------------------------------------------------------------------

 ACORDES ESPECIALES de INTRO Y ESTROFAS

 D/F#   Em/B  G/B   G/B   G/B   [C/G ,Traste 1] [C/G*2,Tr.3]
|--2--|--0--|--x--|--x--|--x--| |--0--|         |--3--|
|--3--|--0--|--0--|--x--|--3--| |--1--|         |--5--|
|--2--|--0--|--0--|--0--|--0--| |--0--|         |--5--|
|--x--|--x--|--x--|--0--|--0--| |--2--|         |--5--|
|--x--|--2--|--2--|--2--|--2--| |--3--|         |--3--|
|--2--|--x--|--x--|--x--|--x--| |--3--|         |--3--|

---------------------------------------------------------------------
2. RIFF ESTROFAS 1 Y 2
---------------------------------------------------------------------

Pienso que se grabó con 2  aparece mi versión para una sola:[1+2]


 GUITARRA 1: ARPEGIOS [altavoz izquierdo]          (Todo el riff 2 veces)
/-------------3-3-------------3-3-|-------------0--|--(2)2-----2-2-2-
|-----3-----3-3-3-----3-----3-3-3-|-----1----1--1--|--(3)3---3---3-3-
|---4-----4---4-4---4-----4---4-4-|---0----0----0--|--(2)2-2-----2-2-
|-------5-----5-5-------5-----5-5-|------2------2--|-0---------------
|---------------------------------|-3----------(3)-|-----------------
|-3---------------3---------------|----------------|-----------------
|
|GUITARRA 2: BAJOS     [altavoz derecho]           (Todo el riff 2 veces)
|---------------------------------|-------------0°°|-------------2°°-
|-------------5°°-------------5°°-|------2°°°°-----|-0°°°--4°°°------
|-------5°°°------------5°°°------|-3°°°°----------|-----------------
\-3°°°------------3°°°------------|----------------|-----------------


GUITARRA 1+2 (riff 2 veces)

  G           ^ vx            ^ vx   C          ^x   E   ^x       v ^x
 -------------3-3-------------3-3-|-------------0--|--(2)2--------2-2-
 -----3-----3-3-3-----3-----3-3-3-|-----1----1--1--|--(3)3-----3--3-3-
 ---4-----4---4-4---4-----4---4-4-|---0----0----0--|--(2)2---2----2-2-
 -------------5-5-------------5-5-|------2------2--|-0-----4*---------
 -------5*--------------5*--------|-3----------(3)-|------------------
 -3---------------3---------------|----------------|------------------
De tres hermanos...
por la vereda....

_____________________________________________________________________


/-------------0-0-------------0-|-------------0-------------0-0- GT.1
|-----1-----1-1-1-----1-----1-1-|-----0-----0-0-----0-----0-0-0-
|---2-----2---2-2---2-----2---2-|---0-----0---0---0-----0---0-0-
|-------2-----2-2-------2-----2-|-------2-----2-------2-----2-2-
|-0---------------0-------------|-------------------------------
|-------------------------------|-0-------------0---------------
|
|-------------2°°°------------2-|------------------------------- GT.2
|-0°°---3°°-------0°°---3°°-----|------------ 2°°-----------2°°-
\-------------------------------|-0°°°--3°°°----0°°°--3°°°------


GUITARRA 1+2

  Am            ^x            ^x      Em                      ^x
|-------------0-0-------------0-|---------------------------0-0-
|-----1-----1-1-1-----1-----1-1-|-----0-----0-------0----0--0-0-
|---2-----2---2-2---2-----2---2-|---0-----0-------0----0----0-0-
|-------------2-2-------------2-|---------------------------2-2-
|-0-----3---------0-----3-------|-------------2°°---------------
|-------------------------------|-0-----3-------0-----3---------
y para nunca equivocarse...

_____________________________________________________________________


              ^x            ^ vx              ^ vx             ^x
/-------------3-------------3-3-|-------------3-3--------------3- GT.1
|-----3-----3-4-----3-----3-4-4-|-----5-----5-5-5------5-----5-5-
|-- 4-----4---3---4-----4---3-3-|---5-----5---5-5----5-----5---5-
|-------4-----3-------4-----3-3-|-------5-----5-5--------5-----5-
|-2----------(2)-2-----------(2)|-3------------(3)-3-------------
|-------------------------------|--------------------------------
|
|-------------------------------|-------------------------------- GT.2
|-2°°---------2--2----------2°°-|-3°°---------3--3-------------3°°
\-------2°°°----------2°°°------|-------3°°°-------------3°°°----


GUITARRA 1+2

  B                               C/G*2
|-------------3-------------3-3-|-------------3-3--------------3-
|-----3-----3-4-----3-----3-4-4-|-----5-----5-5-5------5-----5-5-
|-- 4-----4---3---4-----4---3-3-|---5-----5---5-5----5-----5---5-
|-------------3-------------3-3-|-------------5-5--------------5-
|-2----------(2)-2-----------(2)|-3------------(3)-3-------------
|-------2*------------2*--------|-------3*---------------3*------
iba despierto...

_____________________________________________________________________


                 Am      ¿C/G*2?         ^ vx ^  ^ v ^ vx
/-------------3-|-------|-¿5-5?|---------2-2--2--2-2-2-2-  GT.1
|-----3-----3-4-|----1--|-¿5-5?|-------3-3-3--3--3-3-3-3-
|-- 4-----4---3-|--2--¿0?-¿5-5?|-2°°-0---2-2--2--2-2-2-2-
|-------5-----3-|-------|------|---0-------:--2--0-0-0-0-
|------------(2)|0------|------|-----------:----(0)------
|-3-------------|-------¿3?----|-2°°-------:-------------
|                         [C/G]            :
|---------------|-------|------|--------0--:-------------  GT.2
|------------5°°|-------|------|----0°°----:-----0°°°----
|-------5°°-----|-0°°---|------|-----------:--0----------
\-3°°-----------|-------|3°°°--|-2°°-------2-------------


GUITARRA 1+2

              ^x Am      C/G     D/F#    ^ vx    ^ v ^ vx
|-------------3-|-------|------|---------2-2-----2-2-2-2--
|-----3-----3-4-|----1--|-----1|-------3-3-3-----3-3-3-3--
|-- 4-----4---3-|--2--(0)---0--|-2°°-0---2-2-----2-2-2-2--
|-------------3-|-------|------|---0-------------0-0-0-0--
|------*5*---(2)|0°°----|------|----------------(0)-------
|-3-------------|-------|-3----|-2°°---------2------------
a cuanto iba a pisar


La Notación entre Am y C/G es supuesta.[La grabación suena muy confusa]

---------------------------------------------------------------------
2. RIFF COROS 1 Y 2  -GUITARRA 1+2-
---------------------------------------------------------------------

Aquí siguen dos guitarras, pero solo muestro una ya que la guitarra 2
simplemente refuerza los bajos marcados con ('). Al fondo se oyen apagados
acordes de un 'Tres'[distinto al de los punteos, y señalados entre  ]
Si se quiere alargar bajos, basta con eliminar la ultima nota () del arpegio.

 G**      D/F#**   E ^v^v^v   C       C/G      Am
--------|---------|-----------|-------|---------|-------------
---3-3--|-----3---|-------0---|-------|-------(1)-------------
--------|---2--(4)|-----0-----|-----0-|-----0---|-------------
--------|---------|---2'----0'|---2---|---0-----|-------------
--------|---------|-----------|-3'----|-2'------|-0'°°-0-2h3--
-3'-----|-2'------|-0'  ------|-------|---------|-------------
 m a a    i i a ñ
 P M M    P I m P   P

 eh...    eh...     eh ..
---------------------------------------------------------------------
 G** y D/F#** el sonido es borroso,intenté aproximar las notas.
 G** conviene apoyar bien dedos anular y medio en Tr.3
 D/F# hay que hacer cejilla total sin soltar el dedo anular
 MANO IZQ: m= medio, a= anular i= índice ñ= meñique
                MANO DER: M= medio, P= pulgar I= índice
---------------------------------------------------------------------

D       C       G/B    C-C/G   G/B-G   Am        G        ^x
------|-------|-------|--------|---------|---------|---------(3)--
-----3|-------|-------|--------|------(1)|------(1)|-------0- 3---
---2--|-----0-|-----0-|----0---|-----0---|-----2---|-----0----4---
-0'---|---2---|---0---|--2-----|---0-----|---2-----|---0------5---
------|-3'----|-2'°°--|3'°°--3'|-2'------|-0°°-----|--------------
------|-------|-------|--------|---------|---------|-3*-----------


 G**      D/F#**   E ^v^v^v   C       C/G      Am
--------|---------|-----------|-------|---------|-------------
---3-3--|-----3---|-------0---|-------|-------(1)-------------
--------|---2--(4)|-----0-----|-----0-|-----0---|-------------
--------|---------|---2'----0'|---2---|---0-----|-------------
--------|---------|-----------|-3'----|-2'------|-0'°°-0-2h3--
-3'-----|-2'------|-0'  ------|-------|---------|-------------


D       C     G/B    C *      G/B*  Am  C/G   D/F#      / RASGUEO  \
-----|------|------|--------|-----|----|---|-----------2^°^v^:^v^v^:
----3|------|------|--------|-----|----|---|----3------3------------
--2--|----0-|----0-|----0---|----0|----|---|--2---4-2- 2------------
0'---|--2---|--0---|--2-----|--0--|----|---|-----------0------------
-----|3'----|2'°°--|3'°°--3'|2'---|-0'°|---|------------------------
-----|------|------|--------|-----|----|-3'|2°----------------------
.                                          |
.                                          |------------------
.                                          |------------------
.                               GUITARRA 2 |---- 2-------------
.                                          |-------------0-----
.                       (Bajos paralelos ) |------------------
.                                          |2-2°°---2-2°°------


TODO EL RIFF ANTERIOR SE REPITE PRACTICAMENTE IDENTICO PERO CON
UN 'SOLO' O PUNTEO ADICIONAL. LA REPETICION ENLAZA ASÍ CON LAS
ESTROFAS 2 Y 3:

.                                           | D/F#    ^v^ v^v^v
.                                           |---------2--RASGUEO
.                                           |-------3-3---------
.                                           |-----2-- 3---------
.                                           |---0-----0---------
.                                           |-------------------
.                                           |-2°°---------------
                        (Los bajos de GT.2 al final son iguales)

---------------------------------------------------------------------
3. SOLO DEL CORO  -'TRES' 1 traducido a Guitarra, Cuerdas I y II-
---------------------------------------------------------------------


-7-7-7-|-5-5-5-|-3-3-3-|-0-2-3-|-8-8-8-|-7-7-7-|-5-5-5-  [CORO 1]
-------|-------|-------|-------|-------|-------|-------


-0-2-3-|-5-5-5-|-3-3-3-|-3-3-3°-[3]-3-3-3-|---3--3°°°--
-------|-------|-------|------------------|-3----------


-7-7-7-|-5-5-5-|-3-3-3-|-0-2-3-|-8-8-8-|-7-7-7-|-5-5-5-
-------|-------|-------|-------|-------|-------|-------


-0-2-3-|-5-5-5-|-3-3-3-|-3-3-3-3-0---|-3-3-3-3-3-2°°|-5---2°°°
-------|-------|-------|-----------3-|--------------|---3-----
.                                               >>sigue estrofa 2...

_____________________________________________________________________


-7-7-7-|-5-5-5-|-3-3-3-|-0-2-3-|-8-8-8-|-7-7-7-|-5-5-5-   [CORO 2]
-------|-------|-------|-------|-------|-------|-------


-0-2-3-|-5-5-5-|-3-3-3-|-3-0-----0°-|-3-3-3---3-3°°°|---0
-------|-------|-------|-----0h3----|-------3-------|-3--


-7°°---|-5°°---|-3°°---|-0-2-3-|-8-8-8-|-7-7-7-|-5°°---
-------|-------|-------|-------|-------|-------|-------


-0-2-3-|-5-5-5-|-3-3-3-|-3-0----[0]3-0-----0-|-2---5---2----3°°°
-------|-------|-------|-----0h3-------0h3---|---3---3---3------
.                                               >>sigue estrofa 3...

---------------------------------------------------------------------
 ESTROFA
---------------------------------------------------------------------

4A. GUITARRA 1: ACORDES-ALTAVOZ IZQUIERDO
    TRES 2  : ACORDES ALTAVOZ DERECHO
_____________________________________________________________________
Aunque en general son iguales acordes para G. y Tres,algunos difieren
entre sí y es posible intercambiarlos para obtener más variedad.

G                    C   C/G*2       D/F#
^V^v^-^v^v^ ------ ^v^v^ ^°°^v^v^ - ^v^v^v [rasgueo grabación,sugerido]
 de tres hnos      el pequeño par        tió

G                    C  C/G*2        D/F#
^v^v^-^-^v^v -------- :^v^v:^v  --------:^v^v:^v
por LA vereda A descubrir y a fun        dar

Am                   Em
^^°°^v^-^v^v -----  ^v^v^-^-:^v^v^:
y para nunca equivo  carse o errar

Bm                      C/G*2
^v^v^-^v^v^ ------ ^v^v^-^-:^v^v^:
una pupila         llevaba arriba

G             Am** C/G*2    C/G C/G*2    D/F#
 ^°°v^v ------- ^v^ ------------ ^v^----------^v^v^v^:^v^v^v:
y la otra  en        el             an            dar...

-------------------------------------------------------------------
LO QUE SIGUE SE TOCA IGUAL, excepto unas pocas partes que van así:
-------------------------------------------------------------------

G                    ///   Am
^°°^V^v^-^v^v               ^°°^v^v-^:^v^v^:
y caminó vere-da...  ///   y cuando vino el tiempo de...


Bm                C/G-2           /// D/F#
^v^v^-^:^v^v^: --^v^v^:^v^v^v^:       ^v^v^v^-^^^ >SIGUE A ULTIMO CORO
ya su mirada es  taba extraviada  /// ir.....                  eh..eh..

-------------------------------------------------------------------
1. ^= rasgueo hacia el piso v= rasgueo hacia arriba (devolución)
 lo general el  de cada acorde es un poco más largo
  secuencias entre : : se tocan a un ritmo mucho más rápido.
  Am** pareciera sonar también como si fuera con CEJILLA 
-------------------------------------------------------------------
ACORDES SIMPLIFICADOS -CON BAJOS-
-------------------------------------------------------------------

SOL                   DO        RE(V-3·2·0)
De tres hermanos el mas grande se fue
    SOL            DO           RE(IV-0 V-3·0)
por la vereda a descubrir y a fundar
 LAm               MIm
y para nunca equivocarse o errar
 SIm       DO/SOL*2
una pupila llevaba arriba
    SOL      LAm  SOL·RE/FA#
y la otra en el    andar ...
SOL               DO         RE(V-3·2·0)
Y camino vereda adentro el que más
  SOL               DO        RE(V-3·2.0)
ojo en camino y ojo en lo porvenir
LAm (V-0 V-3 IV-2)        MIm (VI-0 VI-3 V-2)
y cuando vino el tiempo de resumir
 SIm(V-2 VI-2 V-0 V-2 ) DO/SOL*2
ya su mirada  es        taba extraviada
    SOL   LAm   SOL·RE/FA#
entre el estar y el ir
____________________________________________________________________

4B. GUITARRA 2 : BAJOS [ALTAVOZ DERECHO]
____________________________________________________________________

     G             C/G     D          G          C/G     D
.IV|-----5-----5-|-------0°°-------|-----5-----5-|-------0-0---
..V|---5-----5---|-3---3-|---2-3-0-|---5-----5---|-3---3-|---3-
.VI|-3-----3-----|---3---|---------|-3-----3-----|---3---|-----
    de tres hermanos...

     Am             Em             Bm            C/G*2
.IV|------------2-|--------------|-------------|-------------
..V|-0---0-0--3---|------2-2---2-|-2---2-2---2-|-3---3-3---3-
.VI|---0----------|-0--3-----3---|---2-----2---|---3-----3---
    y para nunca equivocarse...

     G       Am    C/G   D/F#
.IV|---0---|-----|-----|---0-----0-----
..V|-------|-0°°-|-----|-----------0---
.VI|-3---3-|-----|-3°°-|-2---2-2-----2-
y la otra en  el   an   dar...

     G             C/G      D           G            C/G    D
.IV|------5-----5---|-------0°°-------|-----5-----5-|-------0°°----
..V|----5-----5-----|-3---3-|---2-3-0-|---5-----5---|-3---3-|--3-2-
.VI|-3°°----3-----3-|---3---|---------|-3-----3-----|---3---|------
y caminó...

      Am             Em             Bm            C/G*2
.IV|-----2-----2-|--------------|--------------|--------------------
..V|-0-3---0-3---|------2-2---2-|-2---2-2---0-2|-3---3-3(3)°°-3-2-0-
.VI|-------------|-0--3-----3---|---2-----2----|---3----------------
y cuando vino ....

     G       Am    C/G   D/F#
.IV|--0°°--|-----|-----|---0-------0-0*** >SIGUE A ULTIMO CORO
..V|-------|-0°°-|-----|-----0---0-----                 eh..eh..
.VI|3----3-|-----|-3°°-|-2-----2-------
  entrel es tar   y el  ir...

0*** realmente es una octava mas baja y no resulta en afinación normal,
posiblemente es con Bajo [eléctrico?] Tal vez me equivoqué todo el tiempo
creyendo que los bajos de refuerzo eran con guitarra!!! (Minuto 4:32)

---------------------------------------------------------------------
5. CORO III FINAL (Extractado de 'Cancionero de S.R.', por Zigor Calzada)
---------------------------------------------------------------------

Se arpegia con bajos prácticamente igual a los coros 1 y 2.
Las parte A y B se repiten otra dos veces.


   SOL RE/FA# MIm(VI-0·2·3)
A)Eeeh, eeeh, eh,
  DO   SOL/SI LAm(V-0·2·3)
eeeh, eeeh, eh
  RE   DO   SOL/SI
ojo que no mira
DO  SOL/SI  LAm    SOL
mas acá    tampoco ve.


   SOL   RE   MIm(VI-0·2·3)
B)Uuuh, uuuh, uh,
 DO   SOL/SI LAm(V-0·2·3)
uuuh, uuuh, uh
 RE  DO      SOL/SI
óyeme esto y dime
 DO   SOL/SI    LAm(VI-3)RE/FA#
dime lo que piensas tú.                               >>>>> FIN .Las notas  > G          D/F#*     E               C       Em/B [G/B] Am
3--->32--->20------------|0-----|0----0-|-------------
---->31-----1----
---4-----|---2-----|------0--------|----0---|---0-----|------2------
---------|---------|----2-----0----|--------|---------|----2--------
---------|---------|---------------|-3°°----|-2-------|-0--------2/3
-3-------|-2*------|-0°°-----------|--------|---------|-------------


D         C         G/B   C         G/B     Am        G        ^ vx
2-----|0------|------3°°3°|-------|---------|----------3-3--
------3-|-------1-|3°°--|-------|3°°--|1----3-|0----0--3-3--
----2---|-----0---|-------|-------|-----0-|-----2---|-----0----4-4--
-0------|---2-----|-------|-------|-------|---2-----|---0------5----
--------|-3-------|-2°°---3°°--3--|-2°°---|-0-------|---------(5)---
--------|---------|-------|-------|-------|---------|-3*------------


G           D/F#     E               C       G/B        Am
3--->32--->20------------|---0°°|0------|-------------
---->31-------1--
---4-----|---2-----|------0--------|--------|-----0---|---2---2-----
---------|---------|----2-----0----|--------|---0-----|-----2-------
---------|---------|---------------|-3°°----|-2-------|-0--------2/3
-3-------|-2*------|-0°°-----------|--------|---------|------------


 D       C        G/B    C     G/B  Am  G  D/F#*    ^ vx             ^x
2-----0------|------3-3|----|-|---|-------- 2-2- 2-2-2-2-2-2-2
----->303°°-|------3--10|-------3-3-3--3-3-3-3-3-3-3
----2---|----0---|------|------|---0|-|---|2°°--2---2-2--2-2-2-2-2-2-2
-0------|--2-----|------|------|----|-|---|---0----------0-0-0-0-0-0-0
--------|3-------|-2°°--|3°°-3-|2°°-|0|---|-------------(0)-----------
--------|--------|------|------|----|-|-3-|2°°-----------------------


*********************************************************************
PARA COMENTARIOS SOBRE ANTERIORES COLABORACIONES EN ATAME:
 El día feliz que está llegando,La gaviota

Antiguo e-mail: guitarnet@ ***DESCARTADO*** [clave perdida]
NUEVO E-MAIL: evoldesign2004@
**********************************************************************
Suggest correction
Give kudos to tab author, rate the tab!
1 2 3 4 5
comments
print report bad tab
guest
Wanna post a correction for this tab? Suggest correction