Oops, an error
Loading. Please wait.

Fábula De Los 3 Hermanos Bass Tab

34 views 1 this week
no commentswrite comment
1 2 3 4 5
3 more votes to show rating
add to favorites
launch autoscroll
font size
0
reset
guitar tuner
×
Best way to learn
"Fábula De Los 3 Hermanos"
Autoscroll
slow
fast
+/-
esc
set tempo
stop
El bajo aparece solo en los estribillos:

(1:16') Primera vez que aparece

G|-------------5-4-----4-5s7-5-4-5-5-4-----------|
D|-5-4-----4-5-----7-7-----------------7-5--5-5--|
A|-----7-7--------------------------------------5|
E|-----------------------------------------------|

"Oye esto y dime..."

G|-------------5-4-----4-5s7-5-4-5-5-4---------------------|
D|-5-4-----4-5-----7-7-----------------7-5-4--4-4---4-4-4--|
A|-----7-7----------------------------------------5-------5|
E|---------------------------------------------------------|

Buena canción...suerte.
Suggest correction
Give kudos to tab author, rate the tab!
1 2 3 4 5
comments
print report bad tab
guest
You may want to rate the tab now too:
select rating
Wanna post a correction for this tab? Suggest correction