Oops, an error
Loading. Please wait.

Fábula De Los 3 Hermanos Tab

version 2
version 2

Whole song

43 views 3 this week
no commentswrite comment
1 2 3 4 5
3 more votes to show rating
add to favorites
×
Save as Personal and add changes to this tab that will be seen only by you. Learn more ›
×
You can save this tab as Personal to edit and correct it or add notes. All changes will be seen only by you. Learn more »
save as personal
new!
launch autoscroll
font size
0
reset
how to read this tab
guitar tuner
Autoscroll
slow
fast
+/-
esc
set tempo
stop
INTRO

|-3-----3-2-----2-|-0-------------|-0-------0-----0-|---------------|
|-----3-------3---|---------0---0-|-------1-----0---|-1-------1-----|
|---4-------2-----|---0---0-------|-----0-----0-----|---2---2-------|  I
|-----------------|-----2-----0---|---2-------------|-----2---------|
|-----------------|---------------|-3-------2-------|-0---------2-3-|
|-3-------2-------|-0-------------|-----------------|---------------|

|-2-----0-------|-------0-----0-|-----------------|-----------3-3-|
|-----3-------1-|-0-------------|-3-------1-----1-|-0-------0-0-0-|
|---2-------0---|-----0-----0---|-----0-------2---|---0---0---0-0-|   II
|-0-------2-----|---0-----2-----|---0---0---2-----|-----0-----0---|
|-------3-------|-2-----3-----3-|-2-------0-------|-----------2---|
|---------------|---------------|-----------------|-3---------3---|

Sigue la intro muy parecida a la primera parte
(Tranquilamente la pueden tocar como I)

|-3-----3-2-----2-|-0-------------|---0-------------|---------------|
|-----3-------3---|---------0---0-|-------0-3-----3-|-1-------1-----|
|---4-------2-----|---0---0-------|-----0-------0---|---2---2-------|  III
|-----------------|-----2-----0---|-----------0-----|-----2---------|
|-----------------|---------------|-3-------2-------|-0---------2-3-|
|-3-------2-------|-0-------------|-----------------|---------------|

|-2-----0-------|-------0-----0-|---------|-----------2-2-|---2-2-2-2-2-2---|
|-----3-------0-|-3-------------|-3---1-0-|---3-----3-3-3-|---3-3-3-3-3-3-0-|
|---2-------0---|-----0-----0---|---0-----|-2-----2---2-2-|---2-2-2-2-2-2-0-|IV
|-0-------2-----|---0-----2-----|---------|-----0-----0---|-----0---0---0-0-|
|-------3-------|-2-----3-----3-|-2---0---|-----------0---|-----0---0---0---|
|---------------|---------------|-------3-|-2-------------|-2---------------|

1° ESTROFA

  G                 G                 C                 D
  De    tres     hermanos   el mas    grande    se      fue
|-------------3-3-|-------------3-3-|-------------0-0-|-----2---2-2-2-|  V
|-----3-----3-3-3-|-----3-----3-3-3-|-----1-----1-1-1-|---3-------3-3-|
|---4-----4---4---|---4-----4---4---|---0-----0---0---|-------2---2---|  X2
|-------5-----5---|-------5-----5---|-------2-----2---|-0---------0---|
|-----------------|-----------------|-3---------------|---------------|
|-3---------------|-3---------------|-----------------|---------------|

REPITE V

G                     C           D
Por la vereda a descubrir y a fundar

  Am                Am                Em               Em
  Y para            nunca      equi   vocarse      o   errar
|-------------0-0-|-------------0-0-|-------------0-0-|-------------0-0-|
|-----1-----1-1-1-|-----1-----1-1-1-|-----0-----0-0-0-|-----0-----0-0-0-|  VI
|---2-----2---2---|---2-----2---2---|---0-----0---0---|---0-----0---0---|
|-------2-----2---|-------2-----2---|-------2-----2---|-------2-----2---|
|-0---------------|-0---------------|-----------------|-----------------|
|-----------------|-----------------|-0---------------|-0---------------|


Iba despierto y bien atento a cuanto iba a pisar

|-------------2-2-|-------------2-2-|-------------3-3-|-------------3-3-|
|-----3-----3-3-3-|-----3-----3-3-3-|-----5-----5-5-5-|-----5-----5-5-5-|
|---4-----4---4---|---4-----4---4---|---5-----5---5---|---5-----5---5---| VII
|-------4-----4---|-------4-----4---|-------5-----5---|-------5-----5---|
|-2---------------|-2---------------|-3---------------|-3---------------|
|-----------------|-----------------|-----------------|-----------------|

|------------3-3-|-----------------|-------------2-2-|---2-2-2-2-2-2---|
|----3-----3-3-3-|-----1-------1---|-----3-----3-3-3-|---3-3-3-3-3-3-0-|  VIII
|--4-----4---4---|---0-------0-----|---2-----2---2---|---2-2-2-2-2-2-0-|
|------5-----5---|-------2-------2-|-------0-----0---|-----0---0---0-0-|
|----------------|-0---------------|-------------0---|-----0---0---0---|
|-3--------------|---------3-------|-2---------------|-2---------------|

BÁSICAMENTE ESAS SON LAS ESTROFAS, SE REPITEN LOS ARPEGIOS EN TODAS LAS DEMÁS

ESTRIBILLO:

Eh,Eh,Eh        Eh,Eh,Eh
Ojo que no mira mas alla no ayuda el pie

Uh,Uh,Uh        Uh,Uh,Uh
oyeme esto y dime, dime lo que piensas tu

|-------3-------2-|-------------0-0-|-----------------|-----------------|
|-----3-------3---|-----0-----0-0-0-|-------1-------0-|-----1-----1-----|  IX
|---4-------2-----|---0-----0---0---|-----0-------0---|---2-----2-------|
|-----------------|-------2-----0---|---2-------0-----|-------2---------|
|-----------------|-----------------|-3-------2-------|-0-----------2-3-|
|-3-------2-------|-0---------------|-----------------|-----------------|

|-------2---------|-----------------|-----------------|-----------3-3-|
|-----3---------1-|-----------------|-------0-------1-|-0-------0-0-0-|
|---2---------0---|-----0-----0---0-|-----0-------2---|---0---0---0-0-|  X
|-0---------2-----|---0-----2-------|---0-------2-----|-----0-----0---|
|---------3-------|-2-----3-----3---|-2-------0-------|-----------2---|
|-----------------|-----------------|-----------------|-3---------3---|

IX Y X 2 VECES UNA PARA EH, EH, EH... Y OTRA PARA UH, UH, UH...


LUEGO VUELVE A LA INTRO Y LAS ESTROFAS Y MAS TARDE ESTRIBILLO NUEVAMENTE...


2° ESTROFA (V, VI, VII, VIII)

De tres hermanos el de en medio se fue
Por la vereda a descubrir y a fundar
Y para nunca equivocarse o errar
Iba despierto y bien atento al horizonte igual
Pero este chico listo no podia ver
La piedra, el hoyo que vencia a su pie
Y revolcado siempre se la paso
Y se hizo viejo, queriendo ir lejos, a donde no llego

IX Y X (X2) E INTRO

Eh,Eh,Eh        Eh,Eh,Eh
Ojo que no mira mas alla no ayuda el pie

Uh,Uh,Uh        Uh,Uh,Uh
oyeme esto y dime, dime lo que piensas tu

3° ESTROFA (V, VI, VII, VIII)

De tres hermanos el pequeño partio
Por la vereda a descubrir y a fundar
Y para nunca equivocarse o errar
Una pupila llevaba arriba y la otra en el andar
Y camino, vereda adentro, el que mas
Ojo en camino y ojo en lo por venir
Y cuando vino el tiempo de resumir
Ya su mirada estaba extraviada entre el estar y el ir

IX Y X (X2) E INTRO

Eh,Eh,Eh        Eh,Eh,Eh
Ojo que no mira mas alla no ayuda el pie

Uh,Uh,Uh        Uh,Uh,Uh
oyeme esto y dime, dime lo que piensas tu
Suggest correction
Give kudos to tab author, rate the tab!
1 2 3 4 5
comments
print report bad tab
guest
Wanna post a correction for this tab? Suggest correction