Oops, an error
Loading. Please wait.

Flores Nocturnas Tab

91 views 1 this week
no commentswrite comment
1 2 3 4 5
3 more votes to show rating
add to favorites
launch autoscroll
font size
0
reset
how to read this tab
guitar tuner
Autoscroll
slow
fast
+/-
esc
set tempo
stop
Help us to improve Ultimate-Guitar.com Take our survey!
×
Hola fanaticos de silvio espero q les guste Este tabs elaborado
Por mis Huesos Solo les recomiendo q escuchen bien la cancion
para que les sea un poco mas facil sacarla.

Esta canción se la dedico a Alguien muy especial Mª Alejandra C. M.
ya que ella es la dueña de toda mi inspiración... Te amo:


Bueno hay les va la mejor canción del ``Rodriguez´´
(despues de ``cancion de navidad´´)


^=Rasgueo para abajo

v=Rasgueo para arriba


Introducción:


Riff 1

Riff 2

Riff 1

Riff 3


(A)

Riff 1                                     Riff1
Se abren las flores nocturnas de quinta avenida
Riff 1
Para esos pobres señores que van al hotel

     SOL             ^ v ^            MI         ^ v ^
e|------------3-----[3-3-3]---------------0-----[0-0-0]-----|
B|--------3-----3---[3-3-3]-----------0-----0---[0-0-0]-----|
G|----------0-------[0-0-0]-------------1-------[1-1-1]-----|
D|------0---------------------------2-----------------------|
A|----------------------------------------------------------|
E|---3---------------------------0--------------------------|


    SIm         ^            SOL         ^ v ^
e|----------2--[2]-------------------3--[3-3-3]-----|
B|------3------[3]----3------------3----[3-3-3]-----|
G|--------4----[4]---------------0------[0-0-0]-----|
D|----4--------[4]--4-------------------------------|
A|--2----------[2]-------2p0------------------------|
E|---------------------------3----------------------|

Flores que rompen en la oscuridad


    SIm         ^             LA#
e|----------2--[2]--------2-------------1--------|
B|------3------[3]----3-------------3------------|
G|--------4----[4]------4-------------3----------|
D|----4--------[4]--4-------------3--------------|
A|--2----------[2]-------------1-----------1-----|
E|-----------------------------------------------|

Flores de guiños de complicidad


         RE/FA#     MI           ^
e|----------2-------------------[0]------------|
B|----------3---------------0---[0]------------|
G|----------2-----------1-------[1]------------|
D|------------------------2-----[2]------------|
A|--0-----------------2---------[2]------------|
E|----3--2----------0-----------[0]---0--2-----|

Flores silbando suicidios


    SOL  ^  v ^   MI/SOL#     RE/FA#       ^ ^ v ^
e|-----[(3)-3-3]-------4----------------2-[2-2-2-2]---|
B|-----[(3)-3-3]-------5------------3-----[3-3-3-3]---|
G|-----[(0)-0-0]-------4--------------2---[2-2-2-3]---|
D|------------------------------0---------[0-0-0-0]---|
A|----------------------------------------[0-0-0-0]---|
E|--3-------------4-----------2-----------[2-2-2-2]---|

Flores de aroma fatal


  FA ^ ^ v v ^   MI ^
e|--[1-1-1-1-1]----[0]---------|
B|--[1-1-1-1-1]----[0]---------|
G|--[2-2-2-2-2]----[1]---------|
D|--[3-3-3-3-3]----[2]---------|
A|--[3-3-3-3-3]----[2]---------|
E|--[1-1-1-1-1]----[0]---------|


     fatal.......,.....fatal


Intermedio:

Riff 2 (2x)


(A)
         Qué jardinero ha sembrado la quinta avenida
         Con variedad tan precisa de nocturnidad
         Cuál es su especie y cuál su país
         Qué fino abono nutrió su raíz
         Dándoles tono silvestre
         Dónde estará su matriz.


Intermedio:

Riff 1


(B)
     MI/SOL#                   Re9/Fa#
e|---------4-----------4------------0-----------0---------|
B|-------------5-----------5------------3-----------3-----|
G|-------4---4-------4---4--------2---2-------2---2-------|
D|----6-----------6------------4------------4-------------|
A|--------------------------------------------------------|
E|--------------------------------------------------------|

      Flores que cruzan las puertas prohibidas


     LA9          la9/do#       Si4/Re#
e|-----------0-------------0------------0----------0---------|
B|-------0-------------0------------0----------0-------------|
G|---------2-------------2--------2---2------2---2-----------|
D|-----2-------------2----------1----------1-----------------|
A|---0------------4------------------------------------------|
E|-----------------------------------------------------------|

      Flores que saben lo que no


    SOL#m                  SIm                  MI
e|---------------------------------2---------2---------------------|
B|----------4----------4-------3---------3---------------0---------|
G|------4----------4-------------4---------4---------1-------------|
D|--------6----------6-------4---------4---------------2-----------|
A|----6----------6---------2--------2--------------2---------------|
E|--4---------4---------------------------------0----------0-2-4---|

   Sabré flores que ensartan su sueño de vida  en guirnaldas sin fe


      Riff 1                   Riff 1
      Flores de sábanas con ojos
                     Riff 1
        flores desechables  Campanillas del

     LA9          la9/do#       Si4/re#
e|-----------0-------------0------------0----------0---------|
B|-------0-------------0------------0----------0-------------|
G|---------2-------------2--------2---2------2---2-----------|
D|-----2-------------2----------1----------1-----------------|
A|---0------------4------------------------------------------|
E|-----------------------------------------------------------|
     antojo                    Flores

    RE               MI   ^ v ^
e|----------2-------------0-0-0--------|
B|------3-----------------0-0-0--------|
G|----2---2---------------1-1-1--------|
D|--0---------------------2-2-2--------|
A|------------------------2-2-2--------|
E|-------------------0----0-0-0--------|

   comiendo sobras del amor.


Intermedio:

Riff 4

Riff 2


(A)

        Brotan, rebotan, explotan por quinta avenida
      Son arrancadas y parten con aire veloz
      Dicen que es duro el oficio de flor
      Cuando sus pétalos se agan al sol
      Pálidas flores nocturnas
        Flores de la decepción........decepción.


(B)

        Flores que cruzan las puertas prohibidas
      Flores que saben lo que no sabré
      Flores que ensartan su sueño de vida en guirnaldas sin fe
      Flores de sábanas con ojos
        Flores desechables  Campanillas del antojo
        Flores sin primavera ni estación


     LA9          la9/do#       Si4/re#
e|-----------0-------------0------------0----------0---------|
B|-------0-------------0------------0----------0-------------|
G|---------2-------------2--------2---2------2---2-----------|
D|-----2-------------2----------1----------1-----------------|
A|---0------------4------------------------------------------|
E|-----------------------------------------------------------|
Flores


    RE               MI  ^ ^
e|----------2------------0-0---|
B|------3----------------0-0---|
G|----2---2--------------1-1---|
D|--0--------------------2-2---|
A|-----------------------2-2---|
E|-----------------------0-0---|

Comiendo sobras


Riff 4.....................Riff4
del amor


        Riff 3
        Flores............... Flores
        Riff 3
        Aya en la jardinera vienen entregando flores (Repeat)


Riff 1:
     LA9          la9/do#           RE9              Re9/fa#
e|-----------0-----------------0------------0---------------0-------|
B|-------0----------------0-----------(3)-------3-----(3)-------3---|
G|---------2--------(2)-----2-------------2---2-----------2---2-----|
D|-----2----------------2-----------0---------------4---------------|
A|---0------------4-------------------------------------------------|
E|------------------------------------------------------------------|


Riff 2:
     LA9          la9/do#           RE9              Re9/fa#
e|-----------0-----------------0------------0-------------------|
B|-------0----------------0-----------(3)-------3------3--5-----|
G|---------2--------(2)-----2-------------2---2-----------------|
D|-----2----------------2-----------0---------------4--4--6-----|
A|---0------------4---------------------------------------------|
E|--------------------------------------------------------------|


Riff 3

LA9          la9/do#           RE9                  Re9/fa#
e|-----------0-----------------0------------0-----------------|
B|-------0----------------0-----------(3)-------3-------------|
G|---------2--------(2)-----2-------------2---2---------------|
D|-----2----------------2-----------0---------------4---------|
A|---0------------4-------------------------------------------|
E|-----------------------------------------------------2-3----|


Riff 4

LA9          la9/do#           RE9                  Re9/fa#
e|-----------0-----------------0------------0----------------------|
B|-------0----------------0-----------(3)-------3--------3-2-------|
G|---------2--------(2)-----2-------------2---2--------2-----(2)---|
D|-----2----------------2-----------0---------------4--------------|
A|---0------------4------------------------------------------------|
E|-----------------------------------------------------------------|
Suggest correction
Give kudos to tab author, rate the tab!
1 2 3 4 5
comments
print report bad tab
guest
You may want to rate the tab now too:
select rating
Wanna post a correction for this tab? Suggest correction