Oops, an error
Loading. Please wait.

Fusil Contra Fusil Tab

version 1
version 1

Whole song

351 views 1 this week
no commentswrite comment
1 2 3 4 5
2 more votes to show rating
add to favorites
launch autoscroll
font size
0
reset
how to read this tab
guitar tuner
Autoscroll
slow
fast
+/-
esc
set tempo
stop
INTRO
   Em  G        Am  Bm            C#  G       A                 D
--------------------2--2-2----------------------------0-------3-2-023-02--
--0---3-------------3--3--3------3---3------3-2-0-232---2-2----3-3---3--3-
-0---4--------2-----4--4---4----5---4---4--2-2-2-----2---2---2-----------2
---------5---2----4----4------------------------------------0-------------
--------5---0----2-----2-----2-3-------5--0-------------------------------
0---3------------------------------3--------------------------------------


VERSO 1

Em  G        Am  Bm            C#  G       A      D
-----------------------2--2-2-------------------2------23h2-0h2--
---0----3--------------3--3--3------3---3------2-2-2-------3-----
--0----4---------2-----4--4---4----5---4---4--2---2---2----------
-----------5----2----4----4--------------------------0-----------
----------5----0----2-----2-----2-3-------5--0-------------------
-0----3-------------------------------3--------------------------


 Em     G       Am   Bm C#
A)El silencio del monte va
      G        A  D
preparando su adiós

VERSO 2
   Em  G        Am  Bm            C#  G       A                 D
--------------------2--2-2----------------------------0-------3-2-023-02--
--0---3-------------3--3--3------3---3------3-2-0-232---2-2----3-3---3--3-
-0---4--------2-----4--4---4----5---4---4--2-2-2-----2---2---2-----------2
---------5---2----4----4------------------------------------0-------------
--------5---0----2-----2-----2-3-------5--0-------------------------------
0---3------------------------------3--------------------------------------

 Em    G       Am   Bm C#
la palabra que se dirá
      G        A           D
in memoriam será la explosión.


   Em    D                          Em
B)Se perdió el nombre de este siglo allí
 D                       Em
su nombre y su apellido son:
 D              E
fusil contra fusil.

  G             A                     G
C)Se quebró la cascara del viento al sur
   A                G
y sobre la primera cruz
  A              C  E
despierta la verdad.

INTRO

  VERSO 1

A)Todo el mundo tercero va
a enterrar su dolor

  VERSO 2
con granizo de plomo harán
su agujero de honor, su canción.

B)Dejaran el cuerpo de la vida allí
su nombre y su apellido son:
fusil contra fusil
cantaran su luto de hombre y de animal
y en vez de lagrimas echar
con plomo lloraran
 E          D            Em
Alzara al hombre de la tumba al sol
 RE                   MIm
y el nombre se repartirán
RE              MIm
fusil contra fusil
RE              MIm
fusil contra fusil
 RE        DO   MI
fusil contra fusil
Suggest correction
Give kudos to tab author, rate the tab!
1 2 3 4 5
comments
print report bad tab
guest
Wanna post a correction for this tab? Suggest correction