Oops, an error
Loading. Please wait.

Fusil Contra Fusil Tab

version 2
version 2

Whole song

209 views 1 this week
no commentswrite comment
1 2 3 4 5
3 more votes to show rating
add to favorites
launch autoscroll
font size
0
reset
how to read this tab
guitar tuner
×
Best way to learn
"Fusil Contra Fusil"
Autoscroll
slow
fast
+/-
esc
set tempo
stop
No es necesario rebuscar palabras para expresas lo que
Representa este canto inmortal?
!!Sean capaces siempre de sentir en lo más hondo, cualquier
Injusticia realizada contra cualquiera en cualquier parte
del mundo, es la cualidad más linda del Revolucionario!!
Hasta la victoria Siempre ¡Patria ó muerte!
(Ernesto Ché Guevara)


Fusil contra fusil


Introducción:
     MI     SOL         LA     SIm           SIm
6|--0-------3------------------------------------------------|
5|-----------------5-5-0-------2-------------2---------------|
4|------------------------2------4---(4)(4)----4---(4)(4)(4)-|
3|----1-------4-------------2------4-(4)(4)------4-(4)(4)(4)-|
2|------0-------3--------------------(3)(3)--------(3)(3)(3)-|
1|-----------------------------------(2)(2)--------(2)(2)(2)-|


    DO       SOL             RE          RE 
6|-----------3--------------------------------------------|
5|--2-3-------------5-5-0---------------------------------|
4|------5------5------------------------------------------|
3|--------5------4---------2---2---2-----------2------2---|
2|---------------------------3---2---0h2-3p2-0------0-----|
1|------------------------------------------------0-------|


        RE              RE 
6|--------------------------------|
5|--------------------------------|
4|--0-----------------------------|
3|----2---------------------2-----|
2|--------3---3-----------3---0---|
1|------3---2---0h2-3p2-0---------|

(Se repite todo una vez más)


(Comienza la parte con canto)

      El silencio del monte va?
     MI     SOL         LA     SIm           SIm
6|--0-------3------------------------------------------------|
5|-----------------5-5-0-------2-------------2---------------|
4|------------------------2------4---(4)(4)----4---(4)(4)(4)-|
3|----1-------4-------------2------4-(4)(4)------4-(4)(4)(4)-|
2|------0-------3--------------------(3)(3)--------(3)(3)(3)-|
1|-----------------------------------(2)(2)--------(2)(2)(2)-|


      Preparando un adiós?
     DO       SOL             RE            RE 
6|-----------3-----------------------------------------------|
5|--2-3-------------5-5-0------------------------------------|
4|------5------5---------------------------0-----------------|
3|--------5------4----------2---2-----2-------2---2-----2----|
2|----------------------------3-----3---3-------3-----3---3--|
1|--------------------------------0-----------------2--------|


      La  palabra  que  se dirá?
     MI     SOL        LA      SIm            SIm
6|--0-------3------------------------------------------------|
5|-----------------5-5-0-------2-------------2---------------|
4|------------------------2------4---(4)(4)----4---(4)(4)(4)-|
3|----1-------4-------------2------4-(4)(4)------4-(4)(4)(4)-|
2|------0-------3--------------------(3)(3)--------(3)(3)(3)-|
1|-----------------------------------(2)(2)--------(2)(2)(2)-|


     In  Memoriam  será?                       La
     DO       SOL             RE          RE 
6|-----------3--------------------------------------------|
5|--2-3-------------5-5-0---------------------------------|
4|------5------5------------------------------------------|
3|--------5------4---------2---2---2-----------2------2---|
2|---------------------------3---2---0h2-3p2-0------0-----|
1|------------------------------------------------0-------|

   Explosión?
        RE            RE 
6|--------------------------------|
5|--------------------------------|
4|--0-----------------------------|
3|----2---------------------2-----|
2|--------3---3-----------3---0---|
1|------3---2---0h2-3p2-0---------|


(Inicia rasgueo)

MIm         RE                    MIm         RE 
Se perdió,      el hombre de este siglo allí,

                   MIm        RE 
Su nombre y su apellido son

                 MI   (MI*)  MI   (MI*)  MI 
!!Fusil contra Fusil!!

SOL        LA                  SOL           LA 
Se quebró,     la cascara del viento al sur

              SOL         LA 
Y sobre la primera cruz

                 DO      MI 
Despierta la verdad?


(Comienza arpegio)


     MI      SOL        LA     SIm            SIm
6|--0-------3------------------------------------------------|
5|-----------------5-5-0-------2-------------2---------------|
4|------------------------2------4---(4)(4)----4---(4)(4)(4)-|
3|----1-------4-------------2------4-(4)(4)------4-(4)(4)(4)-|
2|------0-------3--------------------(3)(3)--------(3)(3)(3)-|
1|-----------------------------------(2)(2)--------(2)(2)(2)-|


     DO       SOL            RE           RE 
6|-----------3--------------------------------------------|
5|--2-3-------------5-5-0---------------------------------|
4|------5------5------------------------------------------|
3|--------5------4---------2---2---2-----------2------2---|
2|---------------------------3---2---0h2-3p2-0------0-----|
1|------------------------------------------------0-------|


       RE            RE 
6|--------------------------------|
5|--------------------------------|
4|--0-----------------------------|
3|----2---------------------2-----|
2|--------3---3-----------3---0---|
1|------3---2---0h2-3p2-0---------|


      Todo el mundo tercero va?
     MI      SOL        LA      SIm           SIm
6|--0-------3------------------------------------------------|
5|-----------------5-5-0-------2-------------2---------------|
4|------------------------2------4---(4)(4)----4---(4)(4)(4)-|
3|----1-------4-------------2------4-(4)(4)------4-(4)(4)(4)-|
2|------0-------3--------------------(3)(3)--------(3)(3)(3)-|
1|-----------------------------------(2)(2)--------(2)(2)(2)-|


      A enterrar su dolor?
     DO       SOL             RE           RE 
6|-----------3-----------------------------------------------|
5|--2-3-------------5-5-0------------------------------------|
4|------5------5---------------------------0-----------------|
3|--------5------4----------2---2-----2-------2---2-----2----|
2|----------------------------3-----3---3-------3-----3---3--|
1|--------------------------------0-----------------2--------|


      Con granizo de plomo harán?
     MI     SOL         LA      SIm           SIm
6|--0-------3------------------------------------------------|
5|-----------------5-5-0-------2-------------2---------------|
4|------------------------2------4---(4)(4)----4---(4)(4)(4)-|
3|----1-------4-------------2------4-(4)(4)------4-(4)(4)(4)-|
2|------0-------3--------------------(3)(3)--------(3)(3)(3)-|
1|-----------------------------------(2)(2)--------(2)(2)(2)-|


     Su agujero de honor?
    DO       SOL            RE         RE 
6|-----------3--------------------------------------------|
5|--2-3-------------5-5-0---------------------------------|
4|------5------5------------------------------------------|
3|--------5------4---------2---2---2-----------2------2---|
2|---------------------------3---2---0h2-3p2-0------0-----|
1|------------------------------------------------0-------|

   Su canción?
       RE              RE 
6|--------------------------------|
5|--------------------------------|
4|--0-----------------------------|
3|----2---------------------2-----|
2|--------3---3-----------3---0---|
1|------3---2---0h2-3p2-0---------|


(Inicia rasgueo)

MIm        RE                     MIm         RE 
Dejarán,          el cuerpo de la vida allí,

                   MIm        RE 
Su nombre y su apellido son

                 MI   (MI*)  MI   (MI*)  MI 
!!Fusil contra Fusil!!

SOL       LA                     SOL        LA 
Cantarán,     su luto de hombre y animal,

                 SOL          LA 
Y en vez de lagrimas echar,

                DO      MI 
Con plomo llorarán?

MI       RE                  MI             RE 
Alzarán      al hombre de la tumba al sol,

                  MI          RE 
Y el nombre se repartirán?

                  MI       RE 
!!Fusil contra Fusil!!

                  MI      RE 
!!Fusil contra Fusil!!

                  DO        MI    (FIN)
!!Fusil contra Fusil!!


Nota: (MI*)=
6|--0--|
5|--2--|
4|--2--|
3|--2--|
2|--0--|
1|--0--|


Con especial cariño para todos mis hermanos de Latinoamérica.

!!Si fuéramos capaces de unirnos, que hermoso y que cercano
sería el futuro!! (Ernesto Ché Guevara)


ltejero28@
Suggest correction
Give kudos to tab author, rate the tab!
1 2 3 4 5
comments
print report bad tab
guest
You may want to rate the tab now too:
select rating
Wanna post a correction for this tab? Suggest correction