Oops, an error
Loading. Please wait.

Hay Un Grupo Que Dice Tab

7 views 1 this week
no commentswrite comment
1 2 3 4 5
3 more votes to show rating
add to favorites
launch autoscroll
font size
0
reset
how to read this tab
guitar tuner
Autoscroll
slow
fast
+/-
esc
set tempo
stop
Help us to improve Ultimate-Guitar.com Take our survey!
×
Para interpretar esta melodía de Silvio es necesario afinar
 la guitarra en Mib medio tono por debajo del universal.

Intro;

Eb|------------0-|------------0-|------------0-|------------0-|
Bb|------------1-|------------1-|------------1-|------------1-|
Gb|------------0-|------------0-|------------0-|------------0-|
Db|------------2-|------------2-|------------2-|------------2-|
Ab|--0-2-3-2-3-3-|--0-2-3-2-3-3-|--0-2-3-2-3-3-|--0-2-3-2-3-3-|
Eb|-3----------0-|-3----------0-|-3----------0-|-3----------0-|

Nota; Antes de tocar un acorde acentúa bien su bajo.

     DO                     LAm
(A) Hay un grupo que dice que lo haga reír,
     FA            SOL7         DO
dicen que mi canción no es así, juvenil,
        LAm                      FA
que yo no me debiera poner a cantar,

Eb|---1---1-|   |----0--2--3--2--0--2--2-|----5--7--8--7--5--7--7-|
Bb|---1---1-|   |---3--3--3--3--3--3--3--|---6--6--6--6--6--6--6--|
Gb|---2---2-|   |--2--2--2--2--2--2--2---|--7--7--7--7--7--7--7---|
Db|---3---3-|   |-0----------------------|------------------------|
Ab|---3---3-|   |------------------------|-5----------------------|
Eb|-1-1-1-1-|   |------------------------|------------------------|
por que siempre estoy triste,      muy triste,

Eb|----5--5--5---|----3--3--3---|----3--3--3---|
Bb|---5--5--5--5-|---4--4--4--4-|---3--3--3--3-|
Gb|--6--6--6--6--|--5--5--5--5--|--4--4--4--4--|
Db|--------------|--------------|--------------|
Ab|-4------------|-3------------|-2------------|
Eb|--------------|--------------|--------------|
    miren que decir eso con tanto motivo    para,

Eb|----1--1--1---|----3--3--3-|       |------------0-|
Bb|---1--1--1--1-|---0--0--0--|       |------------1-|
Gb|--2--2--2--2--|--0--0--0---|       |------------0-|
Db|--------------|------------|       |------------2-|
Ab|--------------|------------|       |--0-2-3-2-3-3-|
Eb|-1------------|-3----------|       |-3----------0-|
    no reírse,     como hoy.        (Entrada 2do. verso)

(A) Hay un grupo que dice que una canción,
tiene que ser muy fácil para la razón,
que las cosas que digo solo las se yo,
no han abierto los ojos, al mundo,
miren que decir eso con tanto motivo para preocuparse,
como hoy.

Nota; En esta ultima estrofa sustituye el Sol7 por un sol mayor,
y al final donde repite dos veces "como hoy" solo repite sus
arpegios.

[A] Hay un grupo que quiere que lo haga feliz,
que me mira la espalda y se pone a reír,
yo no puedo vivir fácilmente,
sin ver que suceden mil cosas, tan tristes,
miren que decir eso con tanto motivo para no reírse,
como hoy, como hoy, como hoy.

 -Al final va este tarareo de despedida-

DO               LAm
larala lala lala laralala,
FA               SOL
larala lala lara laralala,
DO               LAm
larala lala lala laralala,
FA               SOL
larala lala lara laralala.

Eb|------------0-|
Bb|------------1-|
Gb|------------0-|
Db|------------2-|
Ab|--0-2-3-2-3-3-|
Eb|-3----------0-|
       (Fin)

Esta Trascripción es cortesía del Movimiento Jóvenes Rebeldes,
se despide su colega Chema Navarro.
Suggest correction
Give kudos to tab author, rate the tab!
1 2 3 4 5
comments
print report bad tab
guest
You may want to rate the tab now too:
select rating
Wanna post a correction for this tab? Suggest correction