Oops, an error
Loading. Please wait.

Hombre Tab

49 views 1 this week
no commentswrite comment
1 2 3 4 5
3 more votes to show rating
add to favorites
launch autoscroll
font size
0
reset
how to read this tab
guitar tuner
Autoscroll
slow
fast
+/-
esc
set tempo
stop
Help us to improve Ultimate-Guitar.com Take our survey!
×
Con cariño para mi hermano Rodrigo 22/Octubre/2010


            De quererte cantar sufro disnea?.
SMI               Si(menor)                        Mi(Mayor)
6|-------------------------------------------0----------------------|
5|-------2----------------------------------------------------------|
4|-------------4-------------4--------------------2----------2------|
3|--------------------4---------------------------------1-----------|
2|--------------------3---------------------------------0-----------|
1|------------------------------------------------------------------|


             Bastante  más  allá  de  los  pulmones?.
LLFA#      La(Mayor)           La(Mayor)               Fa#(Mayor)
6|---------------------------3---------------------2----------------|
5|------0-----------------------------------------------------------|
4|----------2-------------------2---------------------4-------4-----|
3|--------------2-----------------2-----------------------3---------|
2|--------------2-----------------------------------------2---------|
1|------------------------------------------------------------------|


               Tu sombra brilla    hoy en la pelea mayor?
SMI             Si(menor)                     Mi(Mayor)
6|--------------------------------------0----------------------|
5|-------2-----------------------------------------------------|
4|-------------4-------------4---------------2----------2------|
3|--------------------4----------------------------1-----------|
2|--------------------3----------------------------0-----------|
1|-------------------------------------------------------------|


            De la conciencia  y  las  razones?.
LLFA#      La(Mayor)           La(Mayor)          Fa#(Mayor)
6|---------------------------3----------------2----------------|
5|------0------------------------------------------------------|
4|----------2-------------------2----------------4-------4-----|
3|--------------2-----------------2------------------3---------|
2|--------------2------------------------------------2---------|
1|-------------------------------------------------------------|


        Por  ti  canto  de  pecho,
  LLA           SOL              La(Mayor)         La(Mayor)
6|-----3------------------------------------------3------------|
5|-----------------------------0-------------------------------|
4|---------0----------0-------------2------------------2-------|
3|--------------0-----------------------2----------------2-----|
2|--------------3-----------------------2----------------------|
1|-------------------------------------------------------------|


      Como el sueño en  que  giro?
RDFA#          Re(Mayor)          Do#(menor)       Fa#(Mayor)
6|---------------------------------------------2---------------|
5|------------------------------4------------------------------|
4|----0--------------------------------------------------------|
3|---------2----------2------------6---------------3-----------|
2|--------------3---------------------5---------------2--------|
1|--------------2------------------------4----------------2----|


    Y  leve?                   como aún respiro?
SIRLA Si(menor)              SOL            Re(Mayor)        La(Mayor)
6|-----------------------3---------------------------------------------|
5|-2----------2p0-----------------------------------------0------1-----|
4|-----------------------------------0---------------------2------2----|
3|---4---------------------0-----0-------2-------------2----2------0---|
2|------3---------------------2--------3--------------3------2------2--|
1|------2---------------------2----------------2p0---------------------|


           Por ti adelanto trecho?.
  LLA           SOL              La(Mayor)         La(Mayor)
6|-----3------------------------------------------3------------|
5|-----------------------------0-------------------------------|
4|---------0----------0-------------2------------------2-------|
3|--------------0-----------------------2----------------2-----|
2|--------------3-----------------------2----------------------|
1|-------------------------------------------------------------|


       A lo que falta en tono y canto?
RDFA#      Re(Mayor)                  Do#(menor)       Fa#(Mayor)
6|--------------------------------------------------2---------------|
5|-----------------------------------4------------------------------|
4|--0---------------------------------------------------------------|
3|-------2----------2-------------------6---------------3-----------|
2|------------3----------------------------5---------------2--------|
1|------------2-------------------------------4----------------2----|


            Lo que no perdono?
SIRLA Si(menor)                SOL           Re(Mayor)       La(Mayor)
6|------------------------3----------------------------------------------|
5|-2------------2p0-----------------------------------------0------1-----|
4|------------------------------------0----------------------2------2----|
3|---4----------------------0-----0-------2--------------2----2------0---|
2|-----3----------------------2--------3---------------3-------2------2--|
1|-------2----------------------2---------------2p0----------------------|


    Hombre,             hombre   y  amigo?
  LLSSI/RESOL    La(Mayor) La(Mayor)     Sol/Re(Mayor)   Si(menor)
6|-3--------------------3------------2---------------------------------|
5|-------------0------------------------------------2-----------2p0----|
4|---0-----------2---------2----------------------------4--------------|
3|-----0---0-------2---------2---------2--------------4----------------|
2|-------3-----------2---------2----------3-----3-----------3----------|
1|-------------------------------------------2-------------2-----------|


       Aún queda para estar     contigo?
  LLA    SOL       La(Mayor) La(Mayor)    SOL/RE    Cejilla 5°Traste
6|--3------------------------3---------2-----------5--------------------|
5|------------------0----------------------------------------5----------|
4|----0---------------2--------2----------------------------------------|
3|-------0-----0--------2--------2-------2-----------5-----------5------|
2|----------3-------------2--------2-------3---3-------5-----7-------7--|
1|-------------------------------------------2-----------5---------5----|


    Hombre,             hombre sin templo?
  MRSI  SOL                   Mi(Mayor)      Re(Mayor)     Si(menor)
6|--3--------3(Ligado)2--0----------------------------------------------|
5|----------------------------------------------------0--2--------------|
4|----------------------------------------0----------------4---4------4-|
3|-----0-------------------1-------1--------2----------------4-------4--|
2|-------3-------------------0---0---0--------3----3----------------3---|
1|-----------------------------0----------------2------------------2----|


   Desciende A  MI ciudad?          tu  ejemplo?
MIMiLALAor)  SOLSOL     SOL      La(Mayor)     Sol         La(Mayor)
6|-0-----------2---------3------------------3---------------------------|
5|--------------------------------0-----------------------0-------1-----|
4|---------------------------------------------------------2-------2----|
3|---1-----------2---------0--------2---------0-------0-----2-------0---|
2|-----0-----------3---------3--------2---------3---3---3----2-------2--|
1|-------0-----------2---------3--------0---------3---------------------|


            Supiste cabalgar        contra quien odia?
SMI           Si(menor)                        Mi(Mayor)
6|-----------------------------------------0----------------------|
5|-------2--------------------------------------------------------|
4|-------------4-------------4------------------2----------2------|
3|--------------------4-------------------------------1-----------|
2|--------------------3-------------------------------0-----------|
1|----------------------------------------------------------------|


       Desde su torre de  odio  y  exterminio,
LLFA#     La(Mayor)            La(Mayor)         Fa#(Mayor)
6|---------------------------3----------------2----------------|
5|------0------------------------------------------------------|
4|----------2-------------------2----------------4-------4-----|
3|--------------2-----------------2------------------3---------|
2|--------------2------------------------------------2---------|
1|-------------------------------------------------------------|


           Pero   en   mi     parecer te dio más gloria
SMI            Si(menor)                     Mi(Mayor)
6|--------------------------------------0----------------------|
5|-------2-----------------------------------------------------|
4|-------------4-------------4---------------2----------2------|
3|--------------------4----------------------------1-----------|
2|--------------------3----------------------------0-----------|
1|-------------------------------------------------------------|


         El alma que tallaste a tu dominio
LLFA#     La(Mayor)            La(Mayor)         Fa#(Mayor)
6|---------------------------3----------------2----------------|
5|------0------------------------------------------------------|
4|----------2-------------------2----------------4-------4-----|
3|--------------2-----------------2------------------3---------|
2|--------------2------------------------------------2---------|
1|-------------------------------------------------------------|


           LA  medicina  escasa,
  LLA         SOL                La(Mayor)         La(Mayor)
6|-----3------------------------------------------3------------|
5|-----------------------------0-------------------------------|
4|---------0----------0-------------2------------------2-------|
3|--------------0-----------------------2----------------2-----|
2|--------------3-----------------------2----------------------|
1|-------------------------------------------------------------|


             LA más insuficiente
RDFA#        Re(Mayor)            Do#(menor)      Fa#(Mayor)
6|---------------------------------------------2---------------|
5|------------------------------4------------------------------|
4|----0--------------------------------------------------------|
3|---------2----------2------------6---------------3-----------|
2|--------------3---------------------5---------------2--------|
1|--------------2------------------------4----------------2----|


      Es?.     La de remediar      la mente,
SIRLA   Si(menor)              SOL             Re(Mayor)      La(Mayor)
6|--------------------------3-------------------------------------------|
5|---2-----------2p0-----------------------------------------0-----1----|
4|--------------------------------------0---------------------2-----2---|
3|-----4----------------------0-----0-------2-------------2----2-----0--|
2|--------3----------------------2--------3--------------3------2-----2-|
1|--------2----------------------2---------------2p0--------------------|


           Y la locura pasa,
  LLA           SOL              La(Mayor)         La(Mayor)
6|-----3------------------------------------------3------------|
5|-----------------------------0-------------------------------|
4|---------0----------0-------------2------------------2-------|
3|--------------0-----------------------2----------------2-----|
2|--------------3-----------------------2----------------------|
1|-------------------------------------------------------------|


     Risueña  cuando  engaña?.
RDFA#        Re(Mayor)           Do#(menor)      Fa#(Mayor)
6|---------------------------------------------2---------------|
5|------------------------------4------------------------------|
4|----0--------------------------------------------------------|
3|---------2----------2------------6---------------3-----------|
2|--------------3---------------------5---------------2--------|
1|--------------2------------------------4----------------2----|


  Cual odio?                  de la propia entraña?
SIRLA   Si(menor)               SOL           Re(Mayor)       La(Mayor)
6|--------------------------3-------------------------------------------|
5|---2------------2p0----------------------------------------0-----1----|
4|--------------------------------------0---------------------2-----2---|
3|-----4----------------------0-----0-------2-------------2----2-----0--|
2|--------3----------------------2--------3--------------3------2-----2-|
1|--------2----------------------2---------------2p0--------------------|


   Hombre,              sin       apellido
  LLSSI/REL       La(Mayor)  La(Mayor)     Sol/Re(Mayor)    Si(menor)
6|-3-----------------------3------------2--------------------------------|
5|---------------0-----------------------------------2----------2p0------|
4|---0-------------2----------2--------------------------4---------------|
3|-----0---0---------2----------2---------2------------4-----------------|
2|-------3-------------2----------2----------3-----3--------3------------|
1|----------------------------------------------2----------2-------------|


    Un poco de   piedad         te pido?
  LLA     SOL       La(Mayor) La(Mayor)   SOL/RE     Cejilla 5°Traste
6|--3-------------------------3---------2-----------5--------------------|
5|-------------------0----------------------------------------5----------|
4|-----0---------------2--------2----------------------------------------|
3|--------0-----0--------2--------2-------2-----------5-----------5------|
2|-----------3-------------2--------2-------3---3-------5-----7-------7--|
1|--------------------------------------------2-----------5---------5----|


   Hombre,                   hay todavía,
  MRSI  SOL                   Mi(Mayor)     Re(Mayor)       Si(menor)
6|--3--------3(Ligado)2--0----------------------------------------------|
5|----------------------------------------------------0--2--------------|
4|----------------------------------------0----------------4---4-----4--|
3|-----0-------------------1-------1--------2----------------4------4---|
2|-------3-------------------0---0---0--------3----3---------------3----|
1|-----------------------------0----------------2-----------------2-----|


     Que un tanto más allá está el día!!
MI  LALAayor)  SOLSOL     SOL     La(Mayor)   Sol         La(Mayor)
6|-0-----------2---------3------------------3--------------------------|
5|--------------------------------0-----------------------0------1-----|
4|---------------------------------------------------------2------2----|
3|---1-----------2---------0--------2---------0-------0-----2------0---|
2|-----0-----------3---------3--------2---------3---3---3----2------2--|
1|-------0-----------2---------3--------0---------3--------------------|


    De la melena inculta a la calvicie,
SMI      Si(menor)                        Mi(Mayor)
6|-------------------------------0---------------------------------|
5|--2---------2--------------------2------------2------------------|
4|----4---------4--------------------2-----------------2-------2---|
3|------4---------4--------------------1-------------1-------1-----|
2|--------3---------3-----------------------0---3-----------2------|
1|----------------------------------------0------------------------|


    Del número inicial al incontable
LLFA#  La(Mayor)         La(Mayor)            Fa#(Mayor)
6|------------------3-----------2-----------2-------------------|
5|---0----------------------------------------------------------|
4|-----2--------------2-----------4-----------4---4---------4---|
3|-------2--------------2-----------3---3-------3---------3-----|
2|---------2--------------2-----------2-----------------2-------|
1|----------------------------------------------------2---------|


      Desde la tumba hasta la superficie,
SMI    Si(menor)                         Mi(Mayor)
6|-------------------------------0---------------------------------|
5|--2---------2--------------------2------------2------------------|
4|----4---------4--------------------2-----------------2-------2---|
3|------4---------4--------------------1-------------1-------1-----|
2|--------3---------3-----------------------0---3-----------2------|
1|----------------------------------------0------------------------|


     Tras breve veinte y tan multiplicable,
LLFA#  La(Mayor)      La(Mayor)       Fa#(Mayor)
6|------------------3-----------2-----------2-------------------|
5|---0----------------------------------------------------------|
4|-----2--------------2-----------4-----------4---4---------4---|
3|-------2--------------2-----------3---3-------3---------3-----|
2|---------2--------------2-----------2-----------------2-------|
1|----------------------------------------------------2---------|


   Me  llega  un  canto alado, de fiebres de la infancia
  LRDFA#SOL       La(Mayor)      Re(Mayor)     Do#(menor)   Fa#(Mayor)
6|--3-----------------------3-----------------------------2---------|
5|----------------0----------------------------4--------------------|
4|----0-------------2---------0-------------------------------------|
3|------0-------------2---------2----------------6-----------3------|
2|--------3-----------------------3----------------5-----------2----|
1|----------------------------------2----------------4-----------2--|


    Me brota la invención,      del ansia?
SIRLASi(menor)      SOL                 Re(Mayor)          La(Mayor)
6|--------------3-----------------------------------------------------|
5|--2----------------------------------------------------0------1-----|
4|---------------------------------0----------------------2------2----|
3|----4-----------0-------(0)-x------2---------------2-----2------0---|
2|------3-----------3-----(3)-x--------------------3--------2------2--|
1|--------2-----------3---(3)-x-----------2p0-------------------------|


     Y entero y mutilado,     furiosamente a besos,
  LRDFA# SOL       La(Mayor)     Re(Mayor)      Do#(menor)   Fa#(Mayor)
6|--3-----------------------3-----------------------------2---------|
5|----------------0----------------------------4--------------------|
4|----0-------------2---------0-------------------------------------|
3|------0-------------2---------2----------------6-----------3------|
2|--------3-----------------------3----------------5-----------2----|
1|----------------------------------2----------------4-----------2--|


      Te doy mi     corazón           travieso.
SIRLA Si(menor)     SOL                 Re(Mayor)          La(Mayor)
6|--------------3-----------------------------------------------------|
5|--2----------------------------------------------------0------1-----|
4|---------------------------------0----------------------2------2----|
3|----4-----------0-------(0)-x------2---------------2-----2------0---|
2|------3-----------3-----(3)-x--------------------3--------2------2--|
1|--------2-----------3---(3)-x----------2p0--------------------------|


  Hombre,              hombre sin muerte
  LLSSI/REOL      La(Mayor)  La(Mayor)     Sol/Re(Mayor)  Si(menor)
6|-3-----------------------3------------2-------------------------------|
5|---------------0----------------------------------2-----------2p0-----|
4|---0-------------2----------2-------------------------4---------------|
3|-----0---0---------2----------2---------2-----------4-----------------|
2|-------3-------------2----------2---------3----3---------3------------|
1|--------------------------------------------2-----------2-------------|


     La noche   respiró            tu suerte
  LLA   SOL        La(Mayor) La(Mayor)    SOL/RE    Cejilla 5°Traste
6|--3-------------------------3---------2-----------5-------------------|
5|-------------------0---------------------------------------5----------|
4|-----0---------------2--------2---------------------------------------|
3|--------0-----0--------2--------2-------2-----------5-----------5-----|
2|-----------3-------------2--------2-------3---3-------5----7--------7-|
1|--------------------------------------------2-----------5---------5---|


   Hombre,                  de  buen  destino
  MRSI  SOL                   Mi(Mayor)      Re(Mayor)      Si(menor)
6|--3----------3p2-------0--------------------------------------------|
5|--------------------------------------------------0-2---------------|
4|----------------------------------------0-------------4---4------4--|
3|-----0-------------------1-------1--------2-------------4-------4---|
2|-------3-------------------0---0---0--------3---3--------------3----|
1|-----------------------------0----------------2---------------2-----|


   Y hay luces puestas  en          camino.
MI MLAMayor)    SOLSOL    SSOL    La(Mayor)     Sol         Sol
6|-0-----------2---------3------------------3--------------(3)-----|
5|--------------------------------0------------------------(2)-----|
4|---------------------------------------------------------(0)-----|
3|---1-----------2---------0--------2---------0-------0----(0)-----|
2|-----0-----------3---------3--------2---------3---3---3--(3)-----|
1|-------0-----------2---------3--------0---------3--------(3)-----|


 Se  repite  parte  del coro acompañando con  rasgueo  y algo de arpegio,
 pero me resulta complicado redactarlo,  es por ello que cada uno deberá
 adaptarlo en la práctica y en función a su propia interpretació


ltejero28@
Suggest correction
Give kudos to tab author, rate the tab!
1 2 3 4 5
comments
print report bad tab
guest
You may want to rate the tab now too:
select rating
Wanna post a correction for this tab? Suggest correction