Oops, an error
Loading. Please wait.

Hoy Mi Deber Era Tab

82 views 1 this week
no commentswrite comment
1 2 3 4 5
3 more votes to show rating
add to favorites
launch autoscroll
font size
0
reset
how to read this tab
guitar tuner
×
Best way to learn
"Hoy Mi Deber Era"
Autoscroll
slow
fast
+/-
esc
set tempo
stop
Esta transcripción se la quiero dedicar a una chava
muy linda y especial para mi: Carolina Guzmán L. que
a pesar de conocerla bien hace poco, se ha llevado mi
corazón y creo que "Hoy mi Deber " es dedicarle esta tablatura.

INTRO:

      LAm          LAm/SOL      LAm/FA            FA
|--------------0-----------------------------0-----------------|
|--------0H1H3---1-----1p0-------------0H1H3---1-----1p0-------|
|------2-------------2----2----------2-------------2-----2-----|
|----2-------------2--------2------0-------------3---------3---|
|--0-----------------------------------------------------------|
|----------------3------------2----------------1---------------|

      SId7            MI     MI7
|--------0H1p0----------------------0--------------------------|
|------0--------3p1-0---------0H1H3-------0H1H3-1p0-1----------|
|----2-----------------2p1--1---------1H2----------------------|
|--------------------------------------------------------------|
|--2----------------2-------2---------2-------------0----------|
|--------------------------------------------------------------|


|--------------0-----------------------------0-----------------|
|--------0H1H3---1-----1p0-------------0H1H3---1-----1p0-------|
|------2-------------2----2----------2-------------2-----2-----|
|----2-------------2--------2------0-------------3---------3---|
|--------------------------------------------------------------|
|----------------3------------2----------------1---------------|

|--------0H1p0----------------------0-----------|
|------0--------3p1-0---------0H1H3-------0H1---|
|----2-----------------2p1--1---------1H2-------| SId7 - LAm
|-----------------------------------------------|
|--2----------------2-------2---------2---------|rasgueo deslizando las
|-----------------------------------------------|cuerdas en estos acordes


LAm                 REm7
A)  Hoy MI deber era    cantarle a la patria
   SId7              MI(MI9)
alzar la bandera, sumarme a la plaza
 LAm                    REm7
hoy era un momento mas bien optimista
 SId7                 MI(MI9)
un renacimiento, un sol de conquista
 FA              DO
pero tu me faltas  hace tantos días
 SOL                    RE
que quiero y no puedo tener alegrías
 FA                         DO
pienso en tu cabello que estalla en mi almohada
 SOL                  RE
y estoy que no puedo dar otra batalla.

A)Hoy yo que tenia que cantar a coro
me escondo del día, susurro esto solo
¿Que hago tan lejos dándole motivos
a esta jugarreta, cruel, de los sentidos?
Tu boca pequeña, dentro de mi beso
conquista, se adueña, no toca receso
tu cuerpo y mi cuerpo cantando sudores
sonidos posesos, febriles temblores.

   LAm              SOL#
B)Hoy mi deber era cantarle a la patria
 DO                LAm/FA#
alzar la bandera, sumarme a la plaza
 FA                 DO
y creo que, acaso, al fin lo he logrado
 REm7                SId7        MI LAm
soñando tu abrazo, volando a tu lado.


FINAL:

|--------------0-----------------------------0-----------------|
|--------0H1H3---1-----1p0-------------0H1H3---1-----1p0-------|
|------2-------------2----2----------2-------------2-----2-----|
|----2-------------2--------2------0-------------3---------3---|
|--0-----------------------------------------------------------|
|----------------3------------2----------------1---------------|

|--------0H1p0----------------------0------------1-0-7-5-------|
|------0--------3p1-0---------0H1H3-------0H1----0---5---------|
|----2-----------------2p1--1---------1H2--------1---5---------|
|--------------------------------------------------------------|
|--2----------------2-------2---------2------------------------|
|--------------------------------------------------------------|


ACORDES COMPLEJOS

SId7 = 020101
REm7 = 000211
Suggest correction
Give kudos to tab author, rate the tab!
1 2 3 4 5
comments
print report bad tab
guest
You may want to rate the tab now too:
select rating
Wanna post a correction for this tab? Suggest correction