Oops, an error
Loading. Please wait.

Imagínate Chords

version 2
version 2

Whole song

Interactive

76 views 3 this week
no commentswrite comment
1 2 3 4 5
3 more votes to show rating
add to favorites
launch autoscroll
font size
0
reset
transpose
0
reset
simplify chords
display chords
guitar tuner
×
Best way to learn
"Imagínate"
Autoscroll
slow
fast
+/-
esc
set tempo
stop
F E7 Am C D E F E D F D/F# G

e-------------------0------------------------0-----
B-1---1-3---3-5---5---5----6---6---5---3---3---3---
G---0-----0-----0-------0----0---0---0---0-------0-
D--------------------------------------------------
A-3-----5-----7------------8-------7---5-----------
E--------------------------------------------------

e--------------------0-----------------------------
B--8---8-6----5---5---5---6-5-3-1-0----------------
G----0-----0----0-------0--------------------------
D--------------------------------------------------
A-10-----8----7-----------8-7-5-3-2----------------
E--------------------------------------------------


G   Am     G/B      C
  a)I m a g i n a t e
     Dm       C   G/B
que desde muy ni  ño,
    G/E    Dm  C
te llevaba flo res,
    Dm          G
te daba mi abrigo


a)Imaginate,
que soy el amigo
de tu mismo grado,
que lleva tus libros.

 Am G/B C Dm C G/B G/E Dm C Dm G


   F       E7      Am
 b)I m a g i n a t e
  C     D/F#   E       F
que soy de tu calle,
          Em   Dm      F
que siempre pasé,
       D/F#     G
por donde    miraste


 b)Imaginate
que hasta mi perro,
mebusca en tu puerta
cuando me le pierdo. (toca el tab)

 a)Imagínate
que eres mi dama
E último sueño
mi más roja flama

 a)Imaginate
que somos nosotros,
tú y yo pra siempre,
que no eres de otro.

Final: Am G/B C Dm C G/B G/E Dm C Dm G

NOTAS:

   Am   G/B  C  Dm  G/E  G  F  E7  D/F# E  Em
e---0----3---0---1---3---3--1---0---2---0---0---
B---1----3---1---3---3---3--1---0---3---0---0---
G---2----0---0---2---0---0--2---1---2---1---0---
D---2----0---2---0---0---0--3---0---0---2---2---
A---0----2---3---X---2---2--3---2---X---2---2---
E---X----X---X---X---0---3--1---0---2---0---0---


Cualquier duda o aclaración sólo escribanme.
Suggest correction
Give kudos to tab author, rate the tab!
1 2 3 4 5
comments
print report bad tab
guest
You may want to rate the tab now too:
select rating
Wanna post a correction for this tab? Suggest correction